» » »

Hey Joe Tabs (ver.1)

Artists:  A B C D E F G H I J K L M N O P Q R S T U V W X Y Z # 

Hey Joe Tabs (ver.1)

Jimi Hendrix
Rating:
0/5 (0 votes)

Tabs too difficult? Try these video lessons and learn fast.
                PROPS GO TO: found at the internet

Jimi Hendrix - Hey Joe.
----------------------

 = Slide up to #.
b = Bend.
v = Vibrato.




Intro:


e|--0---0---------------------------------------------|
h|------3---0-----------------------------------------|
g|----------2---0--------------1---1------------------|
D|------------------2----------2---2--------0-----0---|
A|-----------------------------2---2----2------2------|
E|-----------------------0-----0---0------------------|


"Part one"
e|-------------------------------|
h|-------------------------------|
g|-1---1---1---------------------|
D|-2---2---2------0------0-------|
A|-2---2---2---2------2----------|
E|-0---0---0---------------------|


The chords after that are: C, G, D, A, "part one"






The Solo:

01:40


e|----------------------------------------------|
h|--17b---17--15--------------------------------|
g|-----------------16---14v>12------------------|
D|----------------------------------------------|
A|----------------------------------------------|
E|----------------------------------------------|


e|-----------------------------------------------------------------|
h|--17b---17--15---------------------------------------------------|
g|-----------------16--14b--14---16b--16b---------12--------12-----|
D|----------------------------------------14v----------14----------|
A|-----------------------------------------------------------------|
E|-----------------------------------------------------------------|


e|----------------------------------------------|
h|----------------------------17---17v----------|
g|----------12--12b-----------------------------|
D|--12>14------------14-------------------------|
A|----------------------------------------------|
E|----------------------------------------------|


01:51

e|----------------------------------------------------------------|
h|-17---15--17------15--------------------------------------------|
g|--------------16------16--14--16--14--12--14--12v---------------|
D|----------------------------------------------------------------|
A|----------------------------------------------------------------|
E|----------------------------------------------------------------|


1:54

e|--------------------------------------------------------|
h|-----------15--17b-17----17--15-------------------------|
g|--16b--16------------------------16--14--12--14--12v----|
D|--------------------------------------------------------|
A|--------------------------------------------------------|
E|--------------------------------------------------------|


e|----------------------------------------------|
h|----------------------------------------------|
g|--------------12--12b-------------------------|
D|-14----12>14-----------14---------------------|
A|----------------------------------------------|
E|----------------------------------------------|


After the solo there is a part that goes like this:

e|-------------------------------------------------------|
h|-------------------------------------------------------|
g|-------------------------------------------------------|
D|-------------------------------------------------------|
A|---3---------------2--3--4--5--------------4--5--6--7--|
E|------0--1--2--3---------------2--3--4--5--------------|


Although i am so fu**ing proud over this tab, corrections are more than welcome!
If you find an error in the tab, plz fix it and mail the correct txt file to me!



PEACE	!
            
Tabs too difficult? Try these video lessons and learn fast.




comments powered by Disqus
↑ Back to top | Tablatures and chords are parodies/interpretations of the original songs. You may use it for private study, scholarship, research or language learning purposes only