>
 >
Gypsy Eyes

Gypsy Eyes Guitar Tabs

Jimi Hendrix - Gypsy Eyes chords, tabs, tablatures, lyrics

Guitar lessons | Add/correct | Request | Top 50 tabs Artists:  A B C D E F G H I J K L M N O P Q R S T U V W X Y Z 0-9

Gypsy Eyes Guitar Tabs – Jimi Hendrix

CD, Sheet music, Poster

Do you like Gypsy Eyes? Share with your friends now
ChordsTabsTabs v2Tabs v3Ukulele
Intro:
-----------------------------------------------------
-x\----------------x-x-x\------------------x-x--5(6)-
-x\----------------x-x-x\------------------x-x--5(6)-
-x\--7p5-7p5-----7-x-x-x\---7p5-7p5------7-x-x-------
-----------------------------------------------------
-------------8(9)-------------------8(9)-------------

----------------------------------------
-----------------x-x--------------------
-----------------x-x--------------------
-7p5-7p5------7--x-x---7p5-7p5------5t7-
----------------------------------------
---------8(9)------------------8(9)-----

Chorus:

guitar 1:
-------------------------------
-5-8-8(10)-8-8(10)-8-5---------
-----------------------5-7-5-7-
-------------------------------
-------------------------------
-------------------------------
guitar 2:
-12-15-15(17)-15-15(17)-15-12-----------------------
------------------------------15-15(17)-15-15(17)---
----------------------------------------------------
----------------------------------------------------
----------------------------------------------------
-"well I realize that I've been hypnotized"---------

guitar 1:
------------------------------
-------------8----------------
------5---7---7(9)-7p5--------
--7-------------------7--5t7~-
------------------------------
-"I love you gypsy eyes"------
guitar 2:
------------15----------------
-----13-15-----15(17)-15p13~--
--14--------------------------
------------------------------
------------------------------
------------------------------

guitar 1:
------------------------------
-------------8----------------
------5---7---7(9)-7p5--------
--7-------------------7--5t7~-
------------------------------
-"I love you gypsy eyes"------
guitar 2:
------------15----------------
-----13-15-----15(17)-15p13~--
--14--------------------------
------------------------------
------------------------------
------------------------------

   4x
||-----------------------||
||----5(6)---------------||
||----5(6)---------------||
||---------7p5-7p5---5t7-||
||-----------------------||
||--5--------------8-----||


Section A:

-----------------------------------
---------------------------7(9)--7-
---------------------------7(9)--7-
-----5-7-7------5-7-7--------------"Gypsy"
-----------------------------------
-3-5-------3-5---------3-5---------

----------------------------------12-12-12-
--------------------------7(9)7p5-13-13-13-
--------------------------7(9)7p5----------
------5-7-7-----5-7-7----------------------
-------------------------------------------
-3-5--------3-5-------3-5------------------

Verse 1:

   3x
||--------------------------------||
||-5-5---7-7(8)--7--5(6)----5-5---||
||-5-5---7-7(8)--7--5(6)----5-5---||
||-----------------------7------7-||
||--------------------------------||
||-5-5-----5--------5-------------||

tag riffs:
----------------
-8(10)--5-------
---------7-5---
--------------7-
----------------
----------------

--------------------------
--------------------------
---5-7-7(9)-----5-7-7(9)--
-7---------7---7--------7-
--------------------------
--------------------------


--------------------------------8----8----8----8--------
--8-----------------------------8----8----8----8--------
------9---7-----5-------7--5----7(9)-7(9)-7(9)-7(9)-7p5-
----------------------7---------------------------------
--------------------------------------------------------
-"do you still think about me"--------------------------

repeat Section A and verse 1 pattern with these tag riffs:

-15(17)-15(17)-15(17)-12-15-15(17)-
-----------------------------------
-----------------------------------
-----------------------------------
-----------------------------------
-----------------------------------

-15----------------
-15(17)-13(14)-----
---------------15\-
-------------------
-------------------
-------------------

-----------------------
-15(17)-----13(14)-----
---------14--------14\-
-----------------------
-----------------------
-----------------------

verse 3:

leadin:
-----------------
---------8(10)~~-
-7(9)7-5---------
-----------------
-----------------
-----------------

repeat this pattern throughout verse:
---------------------------
-5-----5-----5--5-----5----
-5-----5-----5--5-----5----
-7--5--7--5--7--7--5--7--5-
---------------------------
-5-----5------5---------5--

guitar 1:
---------------------------------------------------
-8(10)-8(10)-8(10)-8(10)-8-5-8-8--8(10)-5----------
------------------------------------------7-5(6)---
-------------------------------------------------7-
---------------------------------------------------
---------------------------------------------------

guitar 2:
-10(12)-10(12)-10(12)-10(12)--10(12)-(12)10p8----
----------------------------------------------10-
-------------------------------------------------
-------------------------------------------------
-------------------------------------------------
-------------------------------------------------

guitar1:
-------------------------
-8---5-------------------
-------7-5---------------
-----------7-5-------5t7-
---------------7\5-------
---------------------5---

-8---5-----------------
-------8-5-------------
-----------7-5---------
---------------7-------
---------------------0-
-----------------------

repeat intro

repeat chorus and add:

guitar 1:
--------------------------
-------13-------13--------
-12-14----12-14----12t14~-
--------------------------
--------------------------
-"I love you gypsy eyes"--

guitar 2:
---------------------------
---------------------------
----------5---------5------
--5--7--------5--7----5t7~-
---------------------------
---------------------------

guitar 1:
------------------------------------------
-------13-15--15(17)-15(17)-(17)15p13-----
-12h14--------------------------------14~-
------------------------------------------
------------------------------------------
-"I love you gypsy eyes"------------------

guitar 2:
---------------------------
---------------------------
-----5-7-7(9)-7(9)-(9)7----
-5h7--------------------5~-
---------------------------
---------------------------

repeat section a with this on guitar 2:
-15------15----15-----15------15------------
-15(17)-(17)15-15(17)-15(17)-(17)15--13-----
----------------------------------------14~-
--------------------------------------------
--------------------------------------------
--------------------------------------------

verse 4:

------------------------------------
------------------------------------
------------------------------------
-----5-7-----5-7---------5----------
---------------------3-----5(6)-5-3-
-3-5-----3-5-----3-5---5------------

fade out with verse 3 figure

guitar 2 outro:

----------5-8-5---9-8-----5-8-7-----5-8-5-----5-8-5---
------5-8-------5-----5-8-------5-8-------5-8---------
-7(9)-------------------------------------------------
------------------------------------------------------
------------------------------------------------------
------------------------------------------------------

-----9-9-9-9-9-9-9---10-10-10-11-11-11-12-12-12-
-/8--8-8-8-8-8-8-8------------------------------
-/9--9-9-9-9-9-9-9---10-10-10-11-11-11-12-12-12-
------------------------------------------------
------------------------------------------------
------------------------------------------------





Comments


Popular Jimi Hendrix tabs & chords
Castles Made Of Sand Bass Tabs
Changes Bass Tabs
Soul Food Bass Tabs
Wild Thing 2 Bass Tabs
A Merman Tabs
Burning Of The Midnight Lamp Tabs
Foxy Lady Tabs
Hey Joe 3 Tabs
The Wind Cries Mary 2 Tabs
Drifting Ukulele


Song lyrics



↑ Back to top | Tablatures and chords are parodies/interpretations of the original songs. You may use it for private study, scholarship, research or language learning purposes only
© 2014 AZChords.com Contact us | Privacy policy | DMCA | Add/correct tabs | Request tabs | Top 50 tabs