>
 >
Dolly Dagger 1

Dolly Dagger 1 Guitar Tabs

Jimi Hendrix - Dolly Dagger 1 chords, tabs, tablatures, lyrics

Guitar lessons | Add/correct | Request | Top 50 tabs Artists:  A B C D E F G H I J K L M N O P Q R S T U V W X Y Z 0-9

Dolly Dagger 1 Guitar Tabs – Jimi Hendrix

CD, Sheet music, Poster

Do you like Dolly Dagger 1? Share with your friends now
Bass TabsTabsTabs v2


Intro:
--------------------------------------
------------------------------------7-
-9/11-7-9---------------------------7-
-----------7~--/11-7-9----------------
-----------------------9~---9-8-7-----
----------------------------------7---

Chorus:
2x
||-7----------------------------------------------------||
||-7---7------------9-----------------------------------||
||-8---9(11)9p7-----9---7~------------------------------||
||-9------------9--------------------------------7-8-9~-||
||-9-------------------------7-8-9------5-7-8-9---------||
||-7--------------------------------5-7-----------------||

intro variation:
-----------------------------------
-----------------------------------
-----------------------------------
-----------------------------------
-/9-5-7-----4-0-2------------2-5~--
--------5~--------2~---2-1-0-------

Verse:

||-7--7--7--7---11--11--11--11---14--14--14--14---------------||
||-7--7--7--7---10--10--10--10---14--14--14--14---------------||
||-8--8--8--8---11--11--11--11---14--14--14--14---------------||
||-9--9--9--9--------------------13--13--13--13-------7---7-9-||
||-------------------------------14--14--14--14---7/9---9-----||
||------------------------------------------------------------||

(Jimi plays variations on the verse progression,
somtimes replacing -11- with ---)
-10- -7-
-11- -6-
---- -7-
---- ---
---- ---

Solo:
--------------------------------------7-----------7------
-10(12)~10--------------------------7---10-10(12)---10-7-
-----------9(11)p7--9(11)9-7~--9(11)---------------------
---------------------------------------------------------
---------------------------------------------------------
---------------------------------------------------------

------------------------------------------------------------10-
-------7-----------------------------------------------10-12---
-9(11)---(11)9-7~---9(11)(12)--9(11)-9-7----------9(11)--------
------------------9----------------------9-7-------------------
--------------------------------------------9-7----------------
-----------------------------------------------10b-------------

-12(14)-12(14)-12(14)-12(14)-12(14)-12(14)-10----
----------------------------------------------12-
-------------------------------------------------
-------------------------------------------------
-------------------------------------------------
-------------------------------------------------

-12-10p7---7-------------10------------------7-------------------------
---------9--9p7-7-7-9(11)---9(11)-9p7-9p7--7-7---------7---------------
---------------9-------------------------9----9-7------7-------------7-
-------------------------------------------------9-7-----9-8-7----7h9--
----------------------------------------------------10b-------10b------


--------12(14)-12(14)-12(14)--10-----
-----10---------------------12---12s-
-9s11--------------------------------
-------------------------------------
-------------------------------------
-------------------------------------

-15(17)-15(17)15\------------------------7-------------------------------------
-------------------7~------------------7---10-7-------------------7------------
-------------------7~-----------9(11)----------9(11)-7------9--7--7------------
-----------------------9p7--7---------------------------------------9-7-9------
--------------------------9------------------------------------------------7h9-


Verse

Bridge:

guitar 1 and bass:
5x
||--------------------------||
||--------------------------||
||--------------------------||
||----------------5-5-7p5---||
||-/9-5-7-----5h7---------7-||
||--------5~----------------||

guitar 2:
-------------------------------7-------------------------------
-------7--------------------------12--12(14)12-10h12p10--------
-9(11)---9(11)9p7---7~---9(11)--------------------------11\9-7-
------------------9--------------------------------------------

----------------------12(14)-12-10h12p10-------------
-----10--12---12(14)~--------------------12-10-12-10-
-/11-------------------------------------------------
-----------------------------------------------------
-----------------------------------------------------
-----------------------------------------------------

------------------------------------------------
-----10--12--12(14)~-(14)-12-10-----------------
-/11-----------------------------9(11)-9(11)-7~-
------------------------------------------------
------------------------------------------------
------------------------------------------------

outro:

guitar 1: 

----
-15-
-14-
-13-
-14-
----

guitar 2 solos on 19th fret, fade out


Lyrics:

Chorus:
B
DOLLY DAGGER


HERE COMES, DOLLY DAGGER
HER LOVE SO HEAVY GONNA MAKE YOU STAGGER
DOLLY DAGGER
SHE DRINKS THE BLOOD FROM A JAGGED EDGE
AH, DRINK UP BABY

BEEN RIDIN' BROOMSICKS SINCE SHE WAS FIFTEEN
BLOW OUT ALL THE OTHER WITCHES ON THE SCENE
SHE GOT A BULL WHIP JUST AS LONG AS YOUR LIFE
HER TONG CAN EVEN SCRATCH THE SOUL OUT OF THE DEVIL'S WIFE

WELL, I SEEN HER IN ACTION AT THE PLAYERS CHOICE
TURN ALL THE LOVE MEN INTO DONUT BOYS
HEY RED HOT MOMMA, YOU'D BETTER STEP ASIDE
THIS CHICK'S GONNA TURN YOU TO A BLOCK OF ICE
LOOK OUT

HERE COMES, DOLLY DAGGER
HER LOVE SO HEAVY GONNA MAKE YOU STAGGER BABY
DOLLY DAGGER
SHE DRINKS THE BLOOD FROM A JAGGED EDGE
RIGHT ON
DRINK UP BABY
HEY!

YEAH, LOOK AT OLD BURNT OUT SUPERMAN
TRYIN' TO SHOOT HIS DUST ON THE SUN
CAPTAIN COMIC IS THE MAN ON THE RUN
ON THE WORDS OF LOVE
DO THEY EVER TOUCH DOLLY BROWN
BETTER GET IN SOME HIGHWAY AND CLEAR OUTTA TOWN

HERE COMES DOLLY DAGGER
HER LOVE'S SO HEAVY, GONNA MAKE YOU STAGGER
DOLLY DAGGER
SHE AIN'T SATISFIED 'TIL SHE GET WHAT SHE'S AFTER
SHE DRINKS THE BLOOD FROM THE JAGGED EDGE
LOOK OUT BABY HERE COMES YOUR MASTER
ALRIGHT
WATCH OUT THERE BABY
GONNA GIVE A LITTLE BIT OF THAT 

DOLLY HEAVY MAMA
GET IT ON GET IT ON GET IT ON

ETC.

oh yes,orjano59hotmailcom,this is for you

this is the original solo:
--------------------------------------7-----------7------
-10(12)~10--------------------------7---10-10(12)---10-7-
-----------9(11)~9--9(11)9-7~--9(11)---------------------
---------------------------------------------------------
---------------------------------------------------------
---------------------------------------------------------

-----------------------------------------------------------12-10(11)-
-------7-------------------------------------------9-10/12-----------
-9(11)---(11)9-7~---9(11)(12)--9(11)-9-7-----9(11)-------------------
------------------9----------------------9-7-------------------------

-12(14)-12(14)-12(14)-12(14)-12(14)-12(14)-10----
----------------------------------------------12-
-------------------------------------------------
-------------------------------------------------
-------------------------------------------------
-------------------------------------------------

--------------------------------------------------------
-12-10p7-------7---7------7-----------------------------
---------9(11)---9---9(11)--(11)9-7---------------------
------------------------------------9-7--9p7------------
---------------------------------------------9p8p7------
---------------------------------------------------10-7-

---------------------12(14)-12(14)-12(14)-10-12--------
-------------7-10/12----------------------------10-/12-
---------7h9-------------------------------------------
-----7h9-----------------------------------------------
-7h9---------------------------------------------------
-------------------------------------------------------

-16(18)-16(18)16\-------------------------7---------------
----------------------------------------7---10p7----------
-------------------7(8)~--------9--9(11)---------9(11)-7~-
-------------------------9p7------------------------------
-----------------------------9----------------------------
----------------------------------------------------------

---------------
---------------
-9--7----------
------9-7---9~-
----------9----
---------------
this solo is wrong and incomplete,try it ur self.compare it 2 my version-see the
difference. this is a fantastic song and there wasnt anything 4 it on the site,so i 
improved an existing tab which i tested and is now perfect,and submitted it .sorry 
if i may have insulted/ripped off/inconvenienced any one





Comments


Popular Jimi Hendrix tabs & chords
Driving South Bass Tabs
Ezy Ryder Bass Tabs
Hey Joe Bass Tabs
Voices In The Wind Bass Tabs
Wild Thing 2 Bass Tabs
Catfish Blues 1 Tabs
Foxy Lady 2 Tabs
Hear My Train A Comin' Tabs
Red House 1 Tabs
Spanish Castle Magic 1 Tabs


Song lyrics



↑ Back to top | Tablatures and chords are parodies/interpretations of the original songs. You may use it for private study, scholarship, research or language learning purposes only
© 2014 AZChords.com Contact us | Privacy policy | DMCA | Add/correct tabs | Request tabs | Top 50 tabs