» » »

Jimi Hendrix, Crosstown Traffic Bass tabs (ver.1)

Artists:  A B C D E F G H I J K L M N O P Q R S T U V W X Y Z # 

Crosstown Traffic Bass tabs (ver.1)

Jimi Hendrix Tabs
Rating:
0/5 (0 votes)
Crosstown Traffic  lessons Tabs too difficult? Try these video lessons and learn fast
                (2)
“Crosstown Traffic”
Jimi Hendrix. 

Tune down all strings down a semitone. (Eb, Ab, Db, Gb)

PART A: chorus (play this 2 times at the beginning)
Gb- --------------------------------------7h8h9--------------
Db----------7h9-9—7-------------9-----------7h9—7h9--
Ab-------9---------------9---7—7---------------------------
Eb- 7-7--------------------------------------------------------

PART B: verses
Gb-----------------------------------------------------------------------------------------------
Db-777777777777777777777--------9-----------------------------------------------------
Ab---------------------------------------------------77------------------77--------------55---
Eb-------------------------------------7-------------------------77-----------------55---------

Gb--------------------------------------
Db---------4-4p2-----------------2--4
Ab-----------------4-------2—4-------
Eb---33---------------22---------------

Go back to part A.  Play part A throughout guitar solo.
            

comments powered by Disqus
↑ Back to top | Jimi Hendrix Bass for Crosstown Traffic. Lyrics for acoustic guitar and electric guitar. Tablatures and chords are parodies/interpretations of the original songs. You may use it for private study, scholarship, research or language learning purposes only