» » »

Jimi Hendrix, Angel Tabs (ver.1)

Artists:  A B C D E F G H I J K L M N O P Q R S T U V W X Y Z # 

Angel Tabs (ver.1)

Jimi Hendrix Tabs
 Rating:
4/5 (8 votes)
Angel lessons Tabs too difficult? Try these video lessons and learn fast
                ANGEL
As recorded by Jimi Hendrix




 Words and Music by Jimi Hendrix

 

Gtr I (E A D G B E) - 'Untitled'


  Q=72
 4/4
  Gtr I
   E E E E S S S S E E    E E E E S S S S E E    E E E E  Q    Q
|-^0-------------0-----|-^0-----------------0-|-^0--------0-------|
|-^7---7-------------7-|-^5---5---------5-----|-^7---7---12---14--|
|-^8-8-------------8---|-^6-6-------------6---|-^8-8------9---11--|
|-^9-----9-----9-------|-^7-----7-----7-------|-^9-------11---13--|
|-^6---------6---------|-^4---------4---------|-^6----------------|
|-^0-------0-----------|-^0-------0-----------|-^0-----0-(0)------|


   E E E E S S S S E E    E E E E S S S S E E    E E E E S S S S E E
|-^0-----------------0-|-^0-------------0-----|-^0-----------------0-|
|-^5---5---------5-----|-^7---7-------------7-|-^5---5---------5-----|
|-^6-6-------------6---|-^8-8-------------8---|-^6-6-------------6---|
|-^7-----7-----7-------|-^9-----9-----9-------|-^7-----7-----7-------|
|-^4---------4---------|-^6---------6---------|-^4---------4---------|
|-^0-------0-----------|-^0-------0-----------|-^0-------0-----------|


   E E E E  Q    Q     E E E E S S S S E E     Q      E  E a  E Q     E
|-^0--------0-------|-^0-----------------0-||---------6s=9-9h11-9-------|
|-^7---7---12---14--|-^5---5---------5-----||o----------------9------11-|
|-^8-8------9---11--|-^6-6-------------6---||----3-----------10------10-|
|-^9-------11---13--|-^7-----7-----7-------||----4----------------11----|
|-^6----------------|-^4---------4---------||o--------------------------|
|-^0-----0-(0)------|-^0-------0-----------||--2---2-(2)------9---------|
                                               E S S +Q       Q    E  E


  a E  E    S  S E   +Q           Q          Q     E  E    E.     S  +Q
|-4h6--4----4----4---(4)-------------------|-------7--7----7--------------|
|---4----------7---------------------------|-------7--7---10----/12-(12)--|
|---4-----------------4h6p4-------4--------|---8-----------9----/13-(13)--|
|--------6-(6)--------6-----6---4h6--------|---9-----------9--------------|
|-----------------------------------5------|------------------------------|
|---4--------------4----------4-------/9-8-|-7---7-7----7--0--0-------0---|
    E.   S +E.     S  S S S S S a S S  S S   E S S E.   S  E  E       Q
                      |-3-|


   S  E     S  +S   S  E    E E E  S S   Q      E  E a  E Q     E
|--------------------------------------|--------6s=9-9h11-9-------|
|-12-11----11-(11)------------6-4------|----------------9------11-|
|-11---------------13-11------6-4------|---3-----------10------10-|
|-------11---------------11---6-4------|---4----------------11----|
|--9------------9-----------4---2-/6S4-|--------------------------|
|--------------------------------------|-2---2-(2)------9---------|
   E     E      E.        S H            E S S +Q       Q    E  E


  a E  E    S  S E   H               Q     E  E    E.     S  +Q
|-4h6--4----4----4-----------------|-------7--7----7--------------|
|---4----------7-----4h7-7S9-8S9-7-|-------7--7---10----/12-(12)--|
|---4----------------4h6-6S8-7S9-6-|---8-----------9----/13-(13)--|
|--------6-(6)---------------------|---9-----------9--------------|
|----------------------------------|------------------------------|
|---4--------------4---------------|-7---7-7----7--0--0-------0---|
    E.   S +E.     S S S S S a E E   E S S E.   S  E  E       Q


   S  E     S  +S   S  E     H             E. S S S S S E. S S S E
|----------------------------------------|-------------------------|
|-12-11----11-(11)-------------------9---|-0------0-----0--------0-|
|-11---------------13-11----11S9-------9-|-4----4---5S6-7----7-----|
|-------11---------------11------9-------|----4-----5S6----7---7---|
|--9------------9------------------7-----|-2--------3S4-5----------|
|----------------------------------------|-------------------------|
   E     E      E.        S  S S S S E E


  E S S  E  a E S S a E S S E   E S S +Q        E Q      E
|---------------------------6-|-6p4-4-(4)-------6-6--------|
|-0---------------------------|-4-------------4-6-6------7-|
|---3-3-(3)-------------------|-4-----------4---6-6---6----|
|-----------4S6S4-------------|-6---------6-----6-6-8------|
|-------------------4S6S4-----|----------------------------|
|-2------2--------2-------2---|-4------4--------6-6--------|
                                Q      S  S S S E E S E.


  a E E  E  S S  S  S S S Q    S S S S  S  S E +E. S S  E.
|-------------7-(7)----------|-------7-(7)---7-(7)-7-7S=9--||
|-7h9-7-(7)---------7--------|-----7---------7-(7)---------||
|---8-8-(8)-----------8------|-8h9---------9-9-(9)---------||
|---9-------9-----------9----|-9-------------------9-9S11--||
|----------------------------|-7---------------------------||
|---7----7-------7--------7--|-7---7----7------------------||


   E.     S  +S   E.    E.   S +Q
|-12--------------------7----9-(9)-------|
|--0-----14-(14)--------0----------0---0-|
|-13-------------13-----8------------8---|
|-14--14-------------14-9--9-------------|
|----------------------------------------|
|--0----------0---------0-------0--------|
   E   E      E       E E  E    S  S S S


  E.   S +E.     S  S  S S S +S  S S S    Q   E  E  Q.      E
|-4------------------------------------|-12---9---------------|
|-0----7-(7)-----7-(7)---------------7-|-12--10-10-12------12-|
|-6----------6-----------6---------6---|--9---9----11---------|
|----7---(7)---7-------7---------7-----|-10--------12---------|
|-0-----------------4------------------|------0---------------|
|--------------------------0-(0)-------|--8--------10---11----|
  E  E   +S  S E    H                     Q   E  E  Q    Q


   E. S  S S E +H                 E.     S  +S   E.    E.   S +Q
|--0---------------0-------0---|-12--------------------7----9-(9)-------|
|-12--9S10S9-9-(9)-------------|--0-----14-(14)--------0----------0---0-|
|-11---------9-(9)-----9-----7-|-13-------------13-----8------------8---|
|--9--6S=7S6-7-(7)---7---------|-14--14-------------14-9--9-------------|
|------------------------------|----------------------------------------|
|--0------------0--------0-----|--0----------0---------0-------0--------|
   H            S  S S S S S E    E   E      E       E E  E    S  S S S


  E.   S +E.     S  S  S S S +S  S S S    E  E E  S S  Q   S   E.
|-4------------------------------------|-12-12-9------------------|
|-0----7-(7)-----7-(7)---------------7-|-12------10---12--14------|
|-6----------6-----------6---------6---|--9---------9-11------13--|
|----7---(7)---7-------7---------7-----|-10-----------12----------|
|-0-----------------4------------------|-------0------------------|
|--------------------------0-(0)-------|--0-----------10--11-(11)-|
  E  E   +S  S E    H


  E E E S S +S  S E  S S S S    E E  Q   Q   Q
|-----0-------------^0-------|----0-^0--^0------|
|-------------------^0-------|-^0-0-^0--^7--^0--|
|-9-------------7---^9S8-7S6-|-^5---^6--^0--^7--|
|---9-----9-(9)---9-^9S8-7S6-|-^5---^7--^7--^7--|
|-7-----7-----------^7S6-5S4-|-^3---^7--^5--^6--|
|-----0----------------------|------^5----------|


  E E E S S +S  S E  S S S S    E E  Q   Q   Q
|-0-0-0-0-0-(0)-0-0-^0-------|----0-^0--^0------|
|-0-0-0-0-0-(0)-0-0-^0-------|-^0-0-^0--^7--^0--|
|-9-9-9-9-9-(9)-9-9-^9S8-7S6-|-^5---^6--^0--^7--|
|-9-9-9-9-9-(9)-9-9-^9S8-7S6-|-^5---^7--^7--^7--|
|-7-7-7-7-7-(7)-7-7-^7S6-5S4-|-^3---^7--^5--^6--|
|-0-0-0-0-0-(0)-0-0----------|------^5----------|


  E E E E +S  S E S S E    E E E E S S S S E E
|-0-----0-(0)---0-----0-|-^0-----------------0-|
|-0-0---------0---------|-^5---5---------5-----|
|-9---------------------|-^6-6-------------6---|
|-9---9-----------9-----|-^7-----7-----7-------|
|-7-----------------7---|-^4---------4---------|
|-0---------------------|-^0-------0-----------|


                                1.
   S S S S E E S S S S S S S S    E E E E S S S S E E
|-^0-----0-------------0-------|-^0-----------------0--||
|-^3---3---3---------3---3-----|-^5---5---------5-----o||
|-^4-4-------------4-------4---|-^6-6-------------6----||
|-^5---------5---5-----------5-|-^7-----7-----7--------||
|-^2-----------2---------------|-^4---------4---------o||
|-^0---------------------------|-^0-------0------------||


  2.
   E E E E S S S S E E    W
|-^0-----------------0-|-^2----*|
|-^5---5---------5-----|-^0----*|
|-^6-6-------------6---|-^1----*|
|-^7-----7-----7-------|-^2----*|
|-^4---------4---------|-^2----*|
|-^0-------0-----------|-^0----*|




--------------------------------------------------------------------------------


Duration Legend
---------------
W - whole; H - half; Q - quarter; E - 8th; S - 16th; T - 32nd; X - 64th; a - acciaccatura
+ - note tied to previous; . - note dotted; .. - note double dotted
Uncapitalized letters represent notes that are staccato (1/2 duration)
Irregular groupings are notated above the duration line
Duration letters will always appear directly above the note/fret number it represents the
duration for.  Duration letters with no fret number below them represent rests.  Multi-
bar rests are notated in the form Wxn, where n is the number of bars to rest for.  Low
melody durations appear below the staff

Tablature Legend
----------------
 h   - hammer-on
 p   - pull-off
 b   - bend
 pb  - pre-bend
 r   - bend release (if no number after the r, then release immediately)
 /\  - slide into or out of (from/to "nowhere")
 s   - legato slide
 S   - shift slide
 - natural harmonic
[n]  - artificial harmonic
n(n) - tapped harmonic
 ~   - vibrato
 tr  - trill
 T   - tap
 TP  - trem. picking
 PM  - palm muting
\n/  - tremolo bar dip; n = amount to dip
 \n  - tremolo bar down
 n/  - tremolo bar up
/n\  - tremolo bar inverted dip
 =   - hold bend; also acts as connecting device for hammers/pulls
 <> - volume swell (louder/softer)
 x   - on rhythm slash represents muted slash
 o   - on rhythm slash represents single note slash

Misc Legend
-----------
 |  - bar
||  - double bar
||o - repeat start
o|| - repeat end
*|  - double bar (ending)
 :  - bar (freetime)
 $  - Segno
 &  - Coda
Tempo markers -  = BPM(8/16=s8/s16), where s8 = swing 8ths, s16 = swing 16ths
            
Submit corrections

comments powered by Disqus
↑ Back to top | Jimi Hendrix Tabs for Angel. Lyrics for acoustic guitar and electric guitar. Tablatures and chords are parodies/interpretations of the original songs. You may use it for private study, scholarship, research or language learning purposes only