>
 >
Lover's Cross

Lover's Cross Guitar Tabs

Jim Croce - Lover's Cross chords, tabs, tablatures, lyrics

Guitar lessons | Add/correct | Request | Top 50 tabs Artists:  A B C D E F G H I J K L M N O P Q R S T U V W X Y Z 0-9

Lover's Cross Guitar Tabs – Jim Croce

CD, Sheet music, Poster

Do you like Lover's Cross? Share with your friends now
ChordsTabs


Jim Croce - Lovers Cross

Chord:
F	 133211
E7	 022130
Am	 x02210
Asus4/f# 202230
Gsus2    320033
Em7/g	 320000
G7	 320001
C	 x32010
Dm	 x00231
Em7/b    x20030
Am/g	 302210
C/e	 032010
D7/f# 	 234232
Em7	 020000
Em	 022000
Dm7	 xx0211


Guitar 1
Intro
  F       E7      Am      Asus4/f# Gsus2  F       Em7/g   G7
|-1-----1-0-----------------------------------0-------0---1---------|
|-----1-----1-3---------1-1h3---1-0---3---1-------0---------3-------|
|---2-----------1-2---2-------2-----0---0---2---0---0---0-----0-----|
|-------------------2-------------------------------------------0---|
|-----------------0-------------------------------------------------|
|-1-------0---------------2-------3-------1-------3-------3---------|


Guitar 2
Intro
|---------4/5-4---5/7-7/8-8/7-5---3h5-3-7---5---3---3h5-3-1///3-1---|
|-----6-------------------------------------------------------------|
|---------4/5-4---5/7-7h9-9p7-5---4/5-4-7---5---4---4/5-4-2///4-2---|
|-------------------------------------------------------------------|
|-------------------------------------------------------------------|
|-------------------------------------------------------------------|

Guitar 1
  C       Am      Dm      G7      C       Am      Dm      G7
|-----0-------0-------1-------1-------0-------0-------1-------1------|
|--------------------------------------------------------------------|
|---0-------2-------2-------0-------0-------2-------2-------0---0----|
|-----------------0-----0-------0-----------------0-----0------------|
|-3-----2-0-----0-----------------3-----2-0-----0--------------------|
|-------------------------3-------------------------------3----------|
     Guess that it was bound to happen, was just a matter of time.
                                                          But now I've

Guitar 2
|-0---------------------1/3-3-3h5-0-------------8---7-7-5-5-3/5-0----|
|--------------------------------------------------------------------|
|-0---------------------2/4-4-4/5-0-------------9/7-7-7-5-5-4/5-0----|
|--------------------------------------------------------------------|
|--------------------------------------------------------------------|
|--------------------------------------------------------------------|


Guitar 1
  C       Am      Dm      G7      C     Em7/b     Am      Am/g
|-----0-------0-------1-------1-------0-----0-----------------0------|
|-----------------------------------------------------1--------------|
|---0-------2-------2-------0---0---0-----0---0-----2-------2---2----|
|-----------------0-----0-------------------------------2------------|
|-3-----2-0-----0-----------------3-----2-------2-0------------------|
|-------------------------3-------------------------------3----------|
  come to my decision, and it's a one of the painfull kind. 'Cause now it

Guitar 2
|-------------------------------------------------------3---3--------|
|-----------------------6-----8---5---5-3---3-1---1-0-1--------------|
|---------------------------------------------------------2---2-0----|
|-------------------5/7---7/9---9-5-----5-----2----------------------|
|--------------------------------------------------------------------|
|--------------------------------------------------------------------|

Guitar 1
  F       G       Am      Am/g    F       C/e     Dm      G7
|-----1-------3-----------------------1-------0-------1-------1------|
|---------------------1-------1--------------------------------------|
|---2---2---0---0---2-------2---2---2---2---0---0---2---2---0---0----|
|-----------------------2-------------------------0------------------|
|-----------------0--------------------------------------------------|
|-1-------3---------------3-------1-------0---------------3----------|

  seems that you wanted a martyr just a regular guy wouldn't do.
                                                             But baby

Guitar 2
|-----5-------7-------8-7-------------5-------5---------5---3---0----|
|-------8-------10----------8---6-6-----8-6-----6-----6-------3------|
|-------------------5---------5-----5-------5-------7-----0----------|
|---7-------9-----7--------------------------------------------------|
|-8-------10--------------7-------8-------8-------5------------------|
|---------------------------------------------------------3----------|

Guitar 1
  C   Em7 Am      Dm      G7      C               G7
|-0---0---0---0-------1-------1-------0-----0---------1-----1--------|
|---1---0------------------------------------------------------------|
|-----------2-------2-------0---0---0-----0---------0-----0-----0----|
|-----------------0-----0---------------2---------------0------------|
|-3---2---0-----0-----------------3-----------3/0--------------------|
|-------------------------3-----------------------3-----------3------|
  I can't hang upon no lover's cross for you.               You

Guitar 2
|-----------------------5-------------------8-----7/5---5------------|
|-------------5-6---5-------8-------------------------6--------------|
|-9---7---5-----------7---------9-------9-------9-7/5---5------------|
|---10--8---7-----------------10------10-----------------------------|
|-----------------5-------10--------10----10----------5--------------|
|-8---7---5-----------------------8-----------8----------------------|


Guitar 1
  C       Am      Dm      G7      C       Am      Dm      G7
|-----0-------0-------1-------1-------0-------0-------1-------1------|
|--------------------------------------------------------------------|
|---0-------2-------2-------0---0---0-------2-------2-------0---0----|
|-----------------0-----0-------------------------0-----0------------|
|-3-----2-0-----0-----------------3-----2-0-----0--------------------|
|-------------------------3-------------------------------3----------|
  really got to hand it to you, 'cause girl you really tried. But for

Guitar 2
|-----------------------1/3-3-3/5-0-------------8---7-7-5-5p3-5-0----|
|--------------------------------------------------------------------|
|-----------------------2/4-4-4/5-0-------------9/7-7-7-5-5\4-5-0----|
|--------------------------------------------------------------------|
|--------------------------------------------------------------------|
|--------------------------------------------------------------------|


Guitar 1
  C       Am      Dm      G7      C     C/b       Am      Am/g
|-----0-------0-------1-------1-------0-----0---------0-------0------|
|--------------------------------------------------------------------|
|---0-------2-------2-------0---0---0-----0---0-----2-------2---2----|
|-----------------0-----0-------------------------------2------------|
|-3-----2-0-----0-----------------3-----2-------2-0------------------|
|-------------------------3-------------------------------3----------|
  every time that we spend laughin', there were two times that I cried
                                                            And you were

Guitar 2
|-------------------------------------------------------3------------|
|-------------------5/6-6-6/8-8---5---5-3---3-1---1-0-1-----1--------|
|---------------------------------------------------------2---2-0----|
|-------------------5/7---7/9---9-5-----3-----2----------------------|
|--------------------------------------------------------------------|
|--------------------------------------------------------------------|


Guitar 1
  F       G       Am      Am/g    F       C       Dm      G7
|-----1-------3-----------------------1-------0-------1-------1------|
|---------------------1-------1--------------------------------------|
|---2---2---0---0---2-------2---2---2---2---0---0---2---2---0---0----|
|-----------------------2-------------------------0------------------|
|-----------------0--------------------------------------------------|
|-1-------3---------------3-------1-------0---------------3----------|
  trying to make me a martyr and that's one thing I just couldn't do.
                                                           'Cause baby

Guitar 2
|-----5-------7-------8-7-------------5-------5---------5---3---0----|
|-------8-------10----------8---6-------8-------6-----6--------------|
|-------------------5---------5-----5-------5-----------------0------|
|---7-------9-----7---------------------------------7----------------|
|-8-------10--------------7-------8-------7-------5------------------|
|---------------------------------------------------------3----------|


Guitar 1
  C   C/b Am      Dm      G7      C               C7
|-0---0---0---0-------1-------1-------0------------------------------|
|---1---0-----------------------------------1---0-----1-----1--------|
|-----------2-------2-------0-------0---------------3-----3-----3----|
|-----------------0-----0-------0-------2-----2---------2------------|
|-3---2---0-----0-----------------3-------3-------3-----------3------|
|-------------------------3------------------------------------------|
  I can't hang upon no lover's cross for you.                'Cause

Guitar 2
|-----------------------5--------------------------------------------|
|-------------5-6---5-------8----------------------------10-8--------|
|-9---7---5-----------7---------9-------9-------9-------9-------10---|
|---10--8---7-----------------10------10------10----8-10------10-----|
|-----------------5-------10--------10------10-----------------------|
|-8---7---5-----------------------8-------8-------8------------------|


Guitar 1
  F       G       Am      Em      F       C       Dm      G7
|-1---1---3---3-------0-------0-------1-------0-------1-------1------|
|-------------------1-----------------------1------------------------|
|---2-------0---------------0-------2---------------2-------0---0----|
|-------------------------------------------------0-----0------------|
|-----------------0-----0-----------------3-----3--------------------|
|-1-----1-3-----3---------0-----0-1-----1-----------------3----------|
  tables are meant for turnin', and peolple are bound to change.  And

Guitar 2
|--------------------------------------------------------------------|
|----10-8-----12-10--13-12--8------8-10-8-----10--------10--8--------|
|-------------------------------10--------------10----10--------10---|
|---10------12------14--------10------------10------10---------------|
|-8-------10------12------8-------8-----------------------10---------|
|-----------------------------------------8-------10----------10-----|


Guitar 1
  F       G       Am      Em      F     C     Dm7     G7
|-1---1---3---3-------0-------0---1-1-1-----0---0-1-------1-----1---------1-----1-------|
|-------------------1-------------1-1-1-1-3-3-------------------------------------------|
|---2-------0-----2---------0-----------0-0-------------0-----------0---0-----0---------|
|-------------------------2-----------0-------0-----0-------0-----0---------0-----------|
|-----------------0-----0---------------3-2-0---------------------------------------2---|
|-1-----1-3-----3---------0-----0-1-0-----------------3-------3-------3-----------3-----|
  bridges are meant for burnin'. When the peolpe and memories they just aren't the same.
                                                                                Still I

Guitar 2
|---------------------------------------------------------------------5/7-7/8-8-10------|
|----10-8----12-10--13-12-13p12---6-6-6-5-6-5-----6---6---6-6-6-6---6-------------------|
|-----------------------------12--------------------7-----------------5/7-7h9-9-10------|
|---10------12-----14----14----14-7-7-7-5-5-5---7-------7-----7-----7-------------------|
|-8-------10------12--------------------------5-------5-----5-----5---------------------|
|---------------------------------------------------------------------------------------|


Guitar 1
  C       Am      Dm      G7      C       Am      Dm      G7
|-----0-------0-------1-------1-------0-------0-------1-----1--------|
|-------------------------------------------------------------3------|
|---0-------2-------2-------0-------0-------2-------2---2-------0----|
|-----------------0-----0-------0-----------------0------------------|
|-3-----2-0-----0-----------------3-----2-0-----0--------------------|
|-------------------------3-------------------------------3----------|
  hope that you can find another, who can take what I could not

Guitar 2
|-10/12-----------12/10-8-7///3-3-----------------8-------8----------|
|-----------------------------------------------8---8---8---8---8----|
|-10/12-----------12/10-9-7///4-5---------------------10------7------|
|--------------------------------------------------------------------|
|--------------------------------------------------------------------|
|--------------------------------------------------------------------|


Guitar 1
  C       Am      Dm      G7      C     C/b       Am      Am/g
|-----0-------0-------1-------1-------0-----0---------0-------0------|
|--------------------------------------------------------------------|
|---0-------2-------2-------0---0---0-----0---0-----2-------2---2----|
|-----------------0-----0-------------------------------2------------|
|-3-----2-0-----0-----------------3-----2-------2-0------------------|
|-------------------------3-------------------------------3----------|
      He'll have to be a super guy or maybe  a super God.    'Cause I

Guitar 2
|-----------------7/8-----------------8-----8-----8-----8------------|
|-8---------------------------------8-----8-----8-----------8--------|
|-7h9-------------8/9---7-------7-9-----7----------------------------|
|-------------------------10-10---------------10----9-10--7---10-9---|
|--------------------------------------------------------------------|
|--------------------------------------------------------------------|


Guitar 1
  F       G       Am      Am/g    F       C/e     Dm      G7
|-----1-------3-----------------------1-------0-------1-------1------|
|---------------------1-------1--------------------------------------|
|---2---2---0---0---2-------2---2---2---2---0---0---2---2---0---0----|
|-----------------------2-------------------------0------------------|
|-----------------0--------------------------------------------------|
|-1-------3---------------3-------1-------0---------------3----------|
  never was much of a martyr before and I ain't bout to start nothin' new
                                                              And baby

Guitar 2
|--------------------------------------------------------------------|
|----10-8----12-10---13-12--8--------10-8---8-10--------10--8--------|
|-------------------------------10--10----------10----10--------9----|
|---10------12------14--------10--------------------12--------10-----|
|-8-------10------12------10------8-------7---------------10---------|
|-------------------------------------------------10-----------------|


Guitar 1
  C   C/b Am      Dm      G7      C               C7
|-0---0---0---0-------1-------1-------0------------------------------|
|---1---0-----------------------------------1---0-----1-----1--------|
|-----------2-------2-------0-------0-----0---------3-----3-----3----|
|-----------------0-----0-------0-------2-----2---------2------------|
|-3---2---0-----0-----------------3---------------3-----------3------|
|-------------------------3------------------------------------------|
  I can't hang upon no lover's cross for you.                 'Cause

Guitar 2
|-----------------------5--------------------------------------------|
|-------------5-6---5-------8----------------------------10-8--------|
|-9---7---5-----------7---------9-------9-------9-------9-------10---|
|---10--8---7-----------------10------10------10----8-10-------------|
|-----------------5-------10--------10------10----------------8------|
|-8---7---5-----------------------8-------8-------8------------------|

Guitar 1
  F       G       Am      Em      F       C       Dm      G7
|-1---1---3---3-------0-------0-------1-------0-------1-------1------|
|-------------------1-----------------------------------3------------|
|---2-------0---------------0-------2---2---0-------2-------0---0----|
|-------------------------------------------------0------------------|
|-----------------0-----0-----------------3-----3--------------------|
|-1-----1-3-----3---------0-----0-1-----------------------3----------|
  tables are meant for turnin', and peolple are bound to change.  And

Guitar 2
|--------------------------------------------------------------------|
|----10-8----12-10---13-12--8------8-10-8-----10--------10--8--------|
|-------------------------------10--------------10----10--------10---|
|---10------12------14--------10------------10------10---------------|
|-8-------10------12------8-------8-----------------------10---------|
|-----------------------------------------8-------10----------10-----|


Guitar 1
  F       G       Am      Em      F     C     Dm7     G7
|-1---1---3---3-------0-------0---1-1-1-----0---0-1-------1-----1---------1-----1-------|
|-------------------1-------------1-1-1-1-3-3-------------------------------------------|
|---2-------0-----2---------0-----------0-0-------------0-----------0---0-----0---------|
|-------------------------2-----------0-------0-----0-------0-----0---------0-----------|
|-----------------0-----0---------------3-2-0---------------------------------------2---|
|-1-----1-3-----3---------0-----0-1-0-----------------3-------3-------3-----------3-----|
bridges are meant for burnin'. When the peolpe and memories they just aren't the same.
                                                                                But I

Guitar 2
|---------------------------------------------------------------------5/7-7/8-8-10------|
|----10-8----12-10--13-12-13p12---6-6-6-5-6-5-----6---6---6-6-6-6---6-------------------|
|-----------------------------12--------------------7-----------------5/7-7h9-9-10------|
|---10------12-----14----14----14-7-7-7-5-5-5---7-------7-----7-----7-------------------|
|-8-------10------12--------------------------5-------5-----5-----5---------------------|
|---------------------------------------------------------------------------------------|


Guitar 1
  C       Am      Dm      G7      C       Am      Dm      G7
|-----0-------0-------1-------1-------0-------0-------1-------1------|
|---------------------------------------------------------------3----|
|---0-------2-------2-------0-------0-------2-------2---2---0--------|
|-----------------0-----0-------------------------0------------------|
|-3-----2-0-----0---------------2-3-----2-0-----0--------------------|
|-------------------------3-------------------------------3----------|
  hope that you can find another, who can take what I could not

Guitar 2
|-10/12-----------12/10-8-7///3-3-----------------8-------8----------|
|---------------------------------------------------8---8---8---8----|
|-10/12-----------12/10-9-7///4-5---------------------10------7------|
|--------------------------------------------------------------------|
|--------------------------------------------------------------------|
|--------------------------------------------------------------------|


Guitar 1
  C       Am      Dm      G7      C     C/b       Am      Am/g
|-----0-------0-------1-------1-------0-----0---------0-------0------|
|--------------------------------------------------------------------|
|---0-------2-------2-------0---0---0-----0---0-----2-------2---0----|
|-----------------0-----0-------------------------------2------------|
|-3-----2-0-----0-----------------3-----2-------2-0------------------|
|-------------------------3-------------------------------3----------|
      He'll have to be a super guy or maybe  a super God.    'Cause I


Guitar 2
|-----------------7/8-----------------8-----8-----8-----8------------|
|-8---------------------------------8-----8-----8-----------8--------|
|-7h9-------------8/9---7-------7-9-----7----------------------------|
|-------------------------10-10---------------10----9-10--7---10-9---|
|--------------------------------------------------------------------|
|--------------------------------------------------------------------|


Guitar 1
  F       G       Am      Am/g    F       C/e     Dm      G7
|-----1-------3-------0-------0-------1-------0-------1-------1------|
|--------------------------------------------------------------------|
|---2---2---0---0---2---2---2---2---2---2---0---0---2---2---0---0----|
|-------------------------------------------------0------------------|
|-----------------0--------------------------------------------------|
|-1-------3---------------3-------1-------0---------------3----------|
  never was much of a martyr before and I ain't bout to start nothin' new
                                                              And baby

Guitar 2
|--------------------------------------------------------------------|
|----10-8----12-10---13-12--8--------10-8---8-10--------10--8--------|
|-------------------------------10--10----------10----10--------9----|
|---10------12------14--------10--------------------12--------10-----|
|-8-------10------12------10------8-------7---------------10---------|
|-------------------------------------------------10-----------------|


Guitar 1
  C   C/b Am      Dm      G7      C       E7      Am      D7/f#
|-0---0---0---0-------1-------1-----------0--------------------------|
|---1---0-----------------------------1-------3---1-----1-1h3-1------|
|-----------2-------2-------0-------0---0---1---0-----2---------0----|
|-----------------0-----0-------0-------------------2----------------|
|-3---2---0-----0-----------------3---------------0------------------|
|-------------------------3-------------------------------3----------|
  I can't hang upon no lover's cross for you.

Guitar 2
|-----------------------5---------8h10-8-10/12-10-8h10-8-10/12-8----|
|-------------5-6---5-------8---5-----------------------------------|
|-9---7---5-----------7---7---7---9/10-9-10/12-10-9/10-9-10/12-9----|
|---10--8---7-------------------------------------------------------|
|-----------------5-------------------------------------------------|
|-8---7---5---------------------------------------------------------|


Guitar 1
  G       F       Gsus2   C
|-------------0-----0-1---0----|
|-0---3---1-------3-------1----|
|---0-------2---0-------0-0----|
|-------0-----------------2----|
|-------------------------3----|
|-3-------1-------3---3--------|

Guitar 2
|-7/8-7-5--3--1/3-5-5/7--7/8----|
|-------------------------------|
|-7/9-7-5--4--2/4-5-5/7--7/9----|
|-------------------------------|
|-------------------------------|
|-------------------------------|





Comments


Popular Jim Croce tabs & chords
I've Got A Name 1 Chords
New Yorks Not For Me Chords
Photographs And Memories Chords
Workin' At The Car Wash Blues Chords
Bad, Bad Leroy Brown 1 Tabs
Photographs And Memories Tabs
Time In A Bottle Tabs
Car Wash Blues Ukulele
Next Time This Time Ukulele
Speedball Tucker Ukulele


Song lyrics



↑ Back to top | Tablatures and chords are parodies/interpretations of the original songs. You may use it for private study, scholarship, research or language learning purposes only
© 2014 AZChords.com Contact us | Privacy policy | DMCA | Add/correct tabs | Request tabs | Top 50 tabs