» » »

Jim Brickman, Beautiful World Were All Here Tabs (ver.1)

Artists:  A B C D E F G H I J K L M N O P Q R S T U V W X Y Z # 

Beautiful World Were All Here Tabs (ver.1)

Jim Brickman Tabs
 Rating:
4/5 (4 votes)
Beautiful World Were All Here lessons Tabs too difficult? Try these video lessons and learn fast
                This is a beautifully simplistic song. The tabs are not complete but good enough 
to play/sing along to. Use capo on 3rd fret.


Intro:
e|--------------------------------------------------|
B|----3-----3-----3-----3-----3-----3------3-----3--|
G|----0-----0-----0-----0-----0-----0------0-----0--|   x 2
D|--------------------------------------0-----0-----|    
A|-------------2-----2-----3-----3------------------|
E|-3-----3------------------------------------------|


Verse1:

Strawberry lips shining in the summer sun...
e|--------------------------------------------------|
B|----3-----3-----3-----3-----3-----3------3-----3--|
G|----0-----0-----0-----0-----0-----0------0-----0--|   x 2
D|--------------------------------------0-----0-----|    
A|-------------2-----2-----3-----3------------------|
E|-3-----3------------------------------------------|

Canary-tips glowing there for everyone...
e|--------------------------------------------------|
B|----3-----3-----3-----3-----3-----3------3-----3--|
G|----0-----0-----0-----0-----0-----0------0-----0--|   x 2
D|--------------------------------------0-----0-----|    
A|-------------2-----2-----3-----3------------------|
E|-3-----3------------------------------------------|

You fell asleep under the cherry tree...
e|------------------------------------------------|
B|----3-----------3-----------3-----------3-------|
G|----0-----------0-----------0-----------0-------|
D|-------x4----0-----x4----------x4----------x4---|    
A|-3-----------------------2-----------0----------|
E|------------------------------------------------|


Chorus1:

Lalalalalala...it's a beautiful world...
e|--------------------------------------------------|
B|----3-----3-----3-----3-----3-----3------3-----3--|
G|----0-----0-----0-----0-----0-----0------0-----0--|
D|--------------------------------------0-----0-----|    
A|-------------2-----2-----3-----3------------------|
E|-3-----3------------------------------------------|

We're all here...
e|--------------------------------------------------|
B|----3-----3-----3-----3-----3-----3------3-----3--|
G|----0-----0-----0-----0-----0-----0------0-----0--|
D|--------------------------------------0-----0-----|    
A|-------------2-----2-----3-----3------------------|
E|-3-----3------------------------------------------|


Verse2:

Your winter skin warming in the summer sun [summer sun]...
e|--------------------------------------------------|
B|----3-----3-----3-----3-----3-----3------3-----3--|
G|----0-----0-----0-----0-----0-----0------0-----0--|   x 2
D|--------------------------------------0-----0-----|    
A|-------------2-----2-----3-----3------------------|
E|-3-----3------------------------------------------|

We know within you will stay forever young [forever young]...
e|--------------------------------------------------|
B|----3-----3-----3-----3-----3-----3------3-----3--|
G|----0-----0-----0-----0-----0-----0------0-----0--|   x 2
D|--------------------------------------0-----0-----|    
A|-------------2-----2-----3-----3------------------|
E|-3-----3------------------------------------------|

You fell asleep under the starlit sea, it's time to wake up...
e|------------------------------------------------|
B|----3-----------3-----------3-----------3-------|
G|----0-----------0-----------0-----------0-------|
D|-------x4----0-----x4----------x4----------x4---|    
A|-3-----------------------2-----------0----------|
E|------------------------------------------------|

The moon is high above you...
e|--------------------------------------------------|
B|----3-----3-----3-----3-----3-----3------3-----3--|
G|----0-----0-----0-----0-----0-----0------0-----0--|
D|--------------------------------------0-----0-----|    
A|-------------2-----2-----3-----3------------------|
E|-3-----3------------------------------------------|

We're all here 'cause we love you...
e|--------------------------------------------------|
B|----3-----3-----3-----3-----3-----3------3-----3--|
G|----0-----0-----0-----0-----0-----0------0-----0--|
D|--------------------------------------0-----0-----|    
A|-------------2-----2-----3-----3------------------|
E|-3-----3------------------------------------------|

And when you finally open your eyes and ears...
e|--------------------------------------------------|
B|----3-----3-----3-----3-----3-----3------3-----3--|
G|----0-----0-----0-----0-----0-----0------0-----0--|
D|--------------------------------------0-----0-----|    
A|-------------2-----2-----3-----3------------------|
E|-3-----3------------------------------------------|

You'll see and you'll hear us sing...
e|--------------------------------------------------|
B|----3-----3-----3-----3-----3-----3------3-----3--|
G|----0-----0-----0-----0-----0-----0------0-----0--|
D|--------------------------------------0-----0-----|    
A|-------------2-----2-----3-----3------------------|
E|-3-----3------------------------------------------|


Chorus2:

Lalalalalala...it's a beautiful world...
e|--------------------------------------------------|
B|----3-----3-----3-----3-----3-----3------3-----3--|
G|----0-----0-----0-----0-----0-----0------0-----0--|
D|--------------------------------------0-----0-----|    
A|-------------2-----2-----3-----3------------------|
E|-3-----3------------------------------------------|

We're all here...
e|--------------------------------------------------|
B|----3-----3-----3-----3-----3-----3------3-----3--|
G|----0-----0-----0-----0-----0-----0------0-----0--|
D|--------------------------------------0-----0-----|    
A|-------------2-----2-----3-----3------------------|
E|-3-----3------------------------------------------|

Lalalalalala...it's a beautiful world...
e|--------------------------------------------------|
B|----3-----3-----3-----3-----3-----3------3-----3--|
G|----0-----0-----0-----0-----0-----0------0-----0--|
D|--------------------------------------0-----0-----|    
A|-------------2-----2-----3-----3------------------|
E|-3-----3------------------------------------------|

We're all here...
e|--------------------------------------------------|
B|----3-----3-----3-----3-----3-----3------3-----3--|
G|----0-----0-----0-----0-----0-----0------0-----0--|
D|--------------------------------------0-----0-----|    
A|-------------2-----2-----3-----3------------------|
E|-3-----3------------------------------------------|

Lalalalalala...it's a beautiful world...
e|--------------------------------------------------|
B|----3-----3-----3-----3-----3-----3------3-----3--|
G|----0-----0-----0-----0-----0-----0------0-----0--|
D|--------------------------------------0-----0-----|    
A|-------------2-----2-----3-----3------------------|
E|-3-----3------------------------------------------|

...it's a beautiful world...
e|--------------------------------------------------|
B|----3-----3-----3-----3-----3-----3------3-----3--|
G|----0-----0-----0-----0-----0-----0------0-----0--|
D|--------------------------------------0-----0-----|    
A|-------------2-----2-----3-----3------------------|
E|-3-----3------------------------------------------|

...it's a beautiful world...
e|--------------------------------------------------|
B|----3-----3-----3-----3-----3-----3------3-----3--|
G|----0-----0-----0-----0-----0-----0------0-----0--|
D|--------------------------------------0-----0-----|    
A|-------------2-----2-----3-----3------------------|
E|-3-----3------------------------------------------|

...it's a beautiful world...
e|--------------------------------------------------|
B|----3-----3-----3-----3-----3-----3------3-----3--|
G|----0-----0-----0-----0-----0-----0------0-----0--|
D|--------------------------------------0-----0-----|    
A|-------------2-----2-----3-----3------------------|
E|-3-----3------------------------------------------|




-Ben_05
            
Submit corrections

comments powered by Disqus
↑ Back to top | Jim Brickman Tabs for Beautiful World Were All Here. Lyrics for acoustic guitar and electric guitar. Tablatures and chords are parodies/interpretations of the original songs. You may use it for private study, scholarship, research or language learning purposes only