» » »

J Holiday, Suffocate Tabs (ver.1)

Artists:  A B C D E F G H I J K L M N O P Q R S T U V W X Y Z # 

Suffocate Tabs (ver.1)

J Holiday Tabs
Rating:
0/5 (0 votes)
Suffocate lessons Tabs too difficult? Try these video lessons and learn fast
                -------------------------------------------------------------------------------
                             Suffocate – J. Holiday
-------------------------------------------------------------------------------

Tuning:Standard

Capo 3

Intro
e|------------x-----------------x-1----------------|
B|---5h6----6-x-5--0—0h5--3---3-x---1----------0---|
G|---5------5-x-5--0—0h5--0--0--x-----2-------2----|
D|-------7----x-5--0—0h5----4---x-------3---3------|
A|---5--------x-0---------5-----x---------3--------|
E|------------x-----------------x------------------|

e|-----------------------------3---------1---------|
B|--------6---5-------------3----3-------1---------|
G|--------5---5—5/7--5--0---0------0-----2---------|
D|------7--------------------------------3---------|
A|----5-------0-------------5--------5---3---------|
E|---------------------------------------1---------|

Verse / Chorus

e|------------x----x-------------x-----x------|
B|---5h6----6-x-5--x—----3-----3-x--1--x------|
G|---5------5-x-5--x—----0---0---x--2--x------|
D|-------7----x-5--x—------4-----x-----x------|
A|---5--------x-0--x--0--5-------x--3--x---0--|
E|------------x----x-------------x-----x------|

Pretty Basic Version, If u know exact chords u can mix up the pattern so it wont be boring.


| /  slide up
| \  slide down
| h  hammer-on
| p  pull-off
| ~  vibrato
| +  harmonic
| x  Mute note
===============================================================================
            

comments powered by Disqus
↑ Back to top | J Holiday Tabs for Suffocate. Lyrics for acoustic guitar and electric guitar. Tablatures and chords are parodies/interpretations of the original songs. You may use it for private study, scholarship, research or language learning purposes only