>
 >
Suffocate

Suffocate Guitar Tabs

J Holiday - Suffocate chords, tabs, tablatures, lyrics

Guitar lessons | Add/correct | Request | Top 50 tabs Artists:  A B C D E F G H I J K L M N O P Q R S T U V W X Y Z 0-9

Suffocate Guitar Tabs – J Holiday

CD, Sheet music, Poster

Do you like Suffocate? Share with your friends now
ChordsChords v2TabsTabs v2Ukulele
-------------------------------------------------------------------------------
                             Suffocate  J. Holiday
-------------------------------------------------------------------------------

Tuning:Standard

Capo 3

Intro
e|------------x-----------------x-1----------------|
B|---5h6----6-x-5--00h5--3---3-x---1----------0---|
G|---5------5-x-5--00h5--0--0--x-----2-------2----|
D|-------7----x-5--00h5----4---x-------3---3------|
A|---5--------x-0---------5-----x---------3--------|
E|------------x-----------------x------------------|

e|-----------------------------3---------1---------|
B|--------6---5-------------3----3-------1---------|
G|--------5---55/7--5--0---0------0-----2---------|
D|------7--------------------------------3---------|
A|----5-------0-------------5--------5---3---------|
E|---------------------------------------1---------|

Verse / Chorus

e|------------x----x-------------x-----x------|
B|---5h6----6-x-5--x----3-----3-x--1--x------|
G|---5------5-x-5--x----0---0---x--2--x------|
D|-------7----x-5--x------4-----x-----x------|
A|---5--------x-0--x--0--5-------x--3--x---0--|
E|------------x----x-------------x-----x------|

Pretty Basic Version, If u know exact chords u can mix up the pattern so it wont be boring.


| /  slide up
| \  slide down
| h  hammer-on
| p  pull-off
| ~  vibrato
| +  harmonic
| x  Mute note
===============================================================================





Comments


Popular J Holiday tabs & chords
Bed 2 Chords
Bed 3 Chords
Bed 5 Chords
Suffocate Chords
Suffocate 1 Chords
Bed Tabs
Suffocate 1 Tabs
Bed Ukulele
Bed 2 Ukulele
Suffocate Ukulele


Song lyrics



↑ Back to top | Tablatures and chords are parodies/interpretations of the original songs. You may use it for private study, scholarship, research or language learning purposes only
© 2014 AZChords.com Contact us | Privacy policy | DMCA | Add/correct tabs | Request tabs | Top 50 tabs