» » »

J Geils Band, Centerfold Bass tabs (ver.1)

Artists:  A B C D E F G H I J K L M N O P Q R S T U V W X Y Z # 

Centerfold Bass tabs (ver.1)

J Geils Band Tabs
Rating:
0/5 (0 votes)
Centerfold lessons Tabs too difficult? Try these video lessons and learn fast
                J. Geils Band

Main Riff (Verse etc.)
G|------------------------------------------|
D|------------------------------------------|
A|----------3-3------------------3-3--------|
E|-3-3--11-------1-1-2--3-3--11-------1-1-2-|


End Of Verse 
(You might notice a slight climb on the last line of every verse)
G|-----------------------|
D|-------------------7-5-|
A|----------3-3--0-5-----|
E|-3-3--11---------------|
     (Pop the 5.7.5)


Chorus (Slapped)
G|------------------5-5-5-5-|
D|--5-5-5-5-7-7-7-7---------|
A|-----------------3-3-3-3--|
E|-3-3-3-3-5-5-5-5----------|
            
Submit corrections

comments powered by Disqus
↑ Back to top | J Geils Band Bass for Centerfold. Lyrics for acoustic guitar and electric guitar. Tablatures and chords are parodies/interpretations of the original songs. You may use it for private study, scholarship, research or language learning purposes only