>
 >
 >
Death Box

Death Box Guitar Tabs

Jfa - Death Box chords, tabs, tablatures, lyrics

Guitar lessons | Add/correct | Request | Top 50 tabs Artists:  A B C D E F G H I J K L M N O P Q R S T U V W X Y Z 0-9

Death Box Guitar Tabs – Jfa

CD, Sheet music, Poster

Do you like Death Box? Share with your friends now
Tabs
-------------------------------------------------------------------------------
-------------------------------------------------------------------------------

Tuning: Standard

Ok I know JFA only has one guitarist, but in the recording you can here a second 
guitar playing an A power chord in the backgroud. So I tabbed the second guitar as 
well. That said, this is a sweet song by a legendary band.


************************************

| /   slide up
| \   slide down
| h   hammer-on
| p   pull-off
| ~   vibrato
| +   harmonic
| x   Mute note
| b   Bend
| *   Palm Mute

************************************


Main Riff (Guitar 1)
e|--------------------------------------------------------------------|
B|--------------------------------------------------------------------|
G|--------------------------------------------------------------------| 4x
D|--7-7-8-8-7-7-5-5-7b-7b-7-7-7-8-8-7-5b-7-7--------------------------| 
A|---------------------------------------7-7--------------------------|
E|--------------------------------------------------------------------|
 |  * * * * * * * *         * * * *
 |
 |
 |(Guitar 2)
e|--------------------------------------------------------------------|
B|--------------------------------------------------------------------|
G|--------------------------------------------------------------------| 4x
D|--7~~~~~~~~~~~~~~~~~~~~~~~~~~~~~~~~~~~~~~~--------------------------|
A|--7~~~~~~~~~~~~~~~~~~~~~~~~~~~~~~~~~~~~~~~--------------------------|
E|--5~~~~~~~~~~~~~~~~~~~~~~~~~~~~~~~~~~~~~~~--------------------------|


Transition Riff
e|--------------------------------------------------------------------|
B|--------------------------------------------------------------------|
G|----(7-7-7-7)b-(8-8-8-8)b-5-7b-7b-(7-7-7-7)b-(8-8-8-8)b-10-10b-10b--| 2x
D|--7-----------------------------------------------------------------|
A|--------------------------------------------------------------------|
E|--------------------------------------------------------------------|
Were there's a "(  )b" it just means to hold the bend on all the notes that are in the "(  )".


Main Riff (Guitar 1)
e|--------------------------------------------------------------------|
B|--------------------------------------------------------------------|
G|--------------------------------------------------------------------|
D|--7-7-8-8-7-7-5-5-7b-7b-7-7-7-8-8-7-5b-7-7--------------------------| 
A|---------------------------------------7-7--------------------------|
E|--------------------------------------------------------------------|
 |  * * * * * * * *         * * * *
 |
 |
 |(Guitar 2)
e|--------------------------------------------------------------------|
B|--------------------------------------------------------------------|
G|--------------------------------------------------------------------|
D|--7~~~~~~~~~~~~~~~~~~~~~~~~~~~~~~~~~~~~~~~--------------------------|
A|--7~~~~~~~~~~~~~~~~~~~~~~~~~~~~~~~~~~~~~~~--------------------------|
E|--5~~~~~~~~~~~~~~~~~~~~~~~~~~~~~~~~~~~~~~~--------------------------|
  

Chorus (Guitar 1)
e|--------------------------------------------------------------------|
B|--------------------------------------------------------------------|
G|--7-10-10-10-10-10-10\9-9-9-9-9-9-----------------------------------| 3x
D|--7-10-10-10-10-10-10\9-9-9-9-9-9--7b-7b-7b-7b-7b-Pick-Slide--------|
A|--5-8--8--8--8--8--8-\7-7-7-7-7-7-----------------------------------|
E|--------------------------------------------------------------------|
 |
 |
 |(Guitar 2)
e|--------------------------------------------------------------------|
B|--------------------------------------------------------------------|
G|--------------------------------------------------------------------| 3x
D|-----------------------------------7~~~~~~~~~~~~~~~-----------------|
A|-----------------------------------7~~~~~~~~~~~~~~~-----------------|
E|-----------------------------------5~~~~~~~~~~~~~~~-----------------|
  
  Just Guitar 1
e|--------------------------------------------------------------------|
B|--------------------------------------------------------------------|
G|-7-10-10-10-10-10-10\9-9-9-9-9-9------------------------------------|
D|-7-10-10-10-10-10-10\9-9-9-9-9-9-5h7-7--5h7-7b-7b~-7-7-8-8-7-5b-7-7-|  
A|-5-8--8--8--8--8--8-\7-7-7-7-7-7--------------------------------7-7-|
E|--------------------------------------------------------------------|
                                                     * * * * 

Main Riff (guitar 1)
e|--------------------------------------------------------------------|
B|--------------------------------------------------------------------|
G|--------------------------------------------------------------------| 3x
D|--7-7-8-8-7-7-5-5-7b-7b-7-7-7-8-8-7-5b-7-7--------------------------|
A|---------------------------------------7-7--------------------------|
E|--------------------------------------------------------------------|
 |  * * * * * * * *         * * * *
 |
 |
 |(guitar 2)
e|--------------------------------------------------------------------|
B|--------------------------------------------------------------------|
G|--------------------------------------------------------------------|
D|--7~~~~~~~~~~~~~~~~~~~~~~~~~~~~~~~~~~~~~~~--------------------------|
A|--7~~~~~~~~~~~~~~~~~~~~~~~~~~~~~~~~~~~~~~~--------------------------|
E|--5~~~~~~~~~~~~~~~~~~~~~~~~~~~~~~~~~~~~~~~--------------------------|


Transition Riff
e|--------------------------------------------------------------------|
B|--------------------------------------------------------------------|
G|----(7-7-7-7)b-(8-8-8-8)b-5-7b-7b-(7-7-7-7)b-(8-8-8-8)b-10-10b-10b--| 2x
D|--7-----------------------------------------------------------------|
A|--------------------------------------------------------------------|
E|--------------------------------------------------------------------|


Main Riff (guitar 1)
e|--------------------------------------------------------------------|
B|--------------------------------------------------------------------|
G|--------------------------------------------------------------------|
D|--7-7-8-8-7-7-5-5-7b-7b-7-7-7-8-8-7-5b-7-7--------------------------|
A|---------------------------------------7-7--------------------------|
E|--------------------------------------------------------------------|
 |  * * * * * * * *         * * * *
 |
 |
 |(guitar 2)
e|--------------------------------------------------------------------|
B|--------------------------------------------------------------------|
G|--------------------------------------------------------------------|
D|--7~~~~~~~~~~~~~~~~~~~~~~~~~~~~~~~~~~~~~~~--------------------------|
A|--7~~~~~~~~~~~~~~~~~~~~~~~~~~~~~~~~~~~~~~~--------------------------|
E|--5~~~~~~~~~~~~~~~~~~~~~~~~~~~~~~~~~~~~~~~--------------------------|

 
Chorus (guitar 1)
e|--------------------------------------------------------------------|
B|--------------------------------------------------------------------|
G|--7-10-10-10-10-10-10\9-9-9-9-9-9-----------------------------------| 3x
D|--7-10-10-10-10-10-10\9-9-9-9-9-9--7b-7b-7b-7b-7b-Pick-Slide--------|
A|--5-8--8--8--8--8--8-\7-7-7-7-7-7-----------------------------------|
E|--------------------------------------------------------------------|
 |
 |
 |(Guitar 2)
e|--------------------------------------------------------------------|
B|--------------------------------------------------------------------|
G|--------------------------------------------------------------------| 3x
D|-----------------------------------7~~~~~~~~~~~~~~~~~---------------|
A|-----------------------------------7~~~~~~~~~~~~~~~~~---------------|
E|-----------------------------------5~~~~~~~~~~~~~~~~~---------------|
  
  Just Guitar 1
e|--------------------------------------------------------------------|
B|--------------------------------------------------------------------|
G|--7-10-10-10-10-10-10\9-9-9-9-9-9-----------------------------------|
D|--7-10-10-10-10-10-10\9-9-9-9-9-9-----------------------------------|
A|--5-8--8--8--8--8--8-\7-7-7-7-7-7-----------------------------------|
E|--------------------------------------------------------------------|


Bridge
e|--------------------------------------------------------------------|
B|--101010101010/111111111111/121212121212/131313131313\--------------|
G|--x-x-x-x-x-x-/x-x-x-x-x-x-/x-x-x-x-x-x-/x-x-x-x-x-x-\--------------| 4x 
D|--7-7-7-7-7-7-/8-8-8-8-8-8-/9-9-9-9-9-9-/101010101010\--------------|
A|--------------------------------------------------------------------|
E|--------------------------------------------------------------------|


Skating Bit (Guitar 1)                                                               
e|--------------------------------------------------------------------|
B|--------------------------------------------------------------------|
G|-------------9~~~~~~~9-9\7~~~~~~~7-7\6~~~~~~~6-6\4~~~~~~~4-4/-------| 2x
D|-------------7~~~~~~~7-7\5~~~~~~~5-5\4~~~~~~~4-4\2~~~~~~~2-2/-------|
A|--------------------------------------------------------------------|
E|--------------------------------------------------------------------|
 |
 |
 |(Guitar 2) 
e|--------------------------------------------------------------------|
B|--------------------------------------------------------------------|
G|--------------------------------------------------------------------| 2x
D|--7~~~~~~~~~~~~~~~~~~~~~~~~~~~~~~~~~~~~~~~~~~~~~~~~~~~~~~~~~~-------|
A|--7~~~~~~~~~~~~~~~~~~~~~~~~~~~~~~~~~~~~~~~~~~~~~~~~~~~~~~~~~~-------|
E|--5~~~~~~~~~~~~~~~~~~~~~~~~~~~~~~~~~~~~~~~~~~~~~~~~~~~~~~~~~~-------|
  

Main Riff (Guitar 1)
e|--------------------------------------------------------------------|
B|--------------------------------------------------------------------|
G|--------------------------------------------------------------------| 4x
D|--7-7-8-8-7-7-5-5-7b-7b-7-7-7-8-8-7-5b-7-7--------------------------| 
A|---------------------------------------7-7--------------------------|
E|--------------------------------------------------------------------|
 |  * * * * * * * *         * * * * 
 |
 |
 |(Guitar 2)
e|--------------------------------------------------------------------|
B|--------------------------------------------------------------------|
G|--------------------------------------------------------------------| 4x
D|--7~~~~~~~~~~~~~~~~~~~~~~~~~~~~~~~~~~~~~~~--------------------------|
A|--7~~~~~~~~~~~~~~~~~~~~~~~~~~~~~~~~~~~~~~~--------------------------|
E|--5~~~~~~~~~~~~~~~~~~~~~~~~~~~~~~~~~~~~~~~--------------------------|


Transition Riff
e|--------------------------------------------------------------------|
B|--------------------------------------------------------------------|
G|----(7-7-7-7)b-(8-8-8-8)b-5-7b-7b-(7-7-7-7)b-(8-8-8-8)b-10-10b-10b--| 2x
D|--7-----------------------------------------------------------------|
A|--------------------------------------------------------------------|
E|--------------------------------------------------------------------|


Main Riff (Guitar 1)
e|--------------------------------------------------------------------|
B|--------------------------------------------------------------------|
G|--------------------------------------------------------------------|
D|--7-7-8-8-7-7-5-5-7b-7b-7-7-7-8-8-7-5b-7-7--------------------------|
A|---------------------------------------7-7--------------------------|
E|--------------------------------------------------------------------|
 |  * * * * * * * *         * * * *
 |
 |
 |(Guitar 2)
e|--------------------------------------------------------------------|
B|--------------------------------------------------------------------|
G|--------------------------------------------------------------------|
D|--7~~~~~~~~~~~~~~~~~~~~~~~~~~~~~~~~~~~~~~~--------------------------|
A|--7~~~~~~~~~~~~~~~~~~~~~~~~~~~~~~~~~~~~~~~--------------------------|
E|--5~~~~~~~~~~~~~~~~~~~~~~~~~~~~~~~~~~~~~~~--------------------------|
 

Chorus (Guitar 1)
e|--------------------------------------------------------------------|
B|--------------------------------------------------------------------|
G|--7-10-10-10-10-10-10\9-9-9-9-9-9-----------------------------------| 3x
D|--7-10-10-10-10-10-10\9-9-9-9-9-9--7b-7b-7b-7b-7b-Pick-Slide--------|
A|--5-8--8--8--8--8--8-\7-7-7-7-7-7-----------------------------------|
E|--------------------------------------------------------------------|
 |
 |
 |(Guitar 2)
e|--------------------------------------------------------------------|
B|--------------------------------------------------------------------|
G|--------------------------------------------------------------------| 3x
D|-----------------------------------7~~~~~~~~~~~~~~~~~---------------|
A|-----------------------------------7~~~~~~~~~~~~~~~~~---------------|
E|-----------------------------------5~~~~~~~~~~~~~~~~~---------------|
  
Ending (Guitar 1)                                                               
e|--------------------------------------------------------------------|
B|--------------------------------------------------------------------|
G|-------------9~~~~~~~9-9\7~~~~~~~7-7\6~~~~~~~6-6\4~~~~~~~4-4/-------| 2x
D|-------------7~~~~~~~7-7\5~~~~~~~5-5\4~~~~~~~4-4\2~~~~~~~2-2/-------|
A|--------------------------------------------------------------------|
E|--------------------------------------------------------------------|
 |
 |
 |(Guitar 2) 
e|--------------------------------------------------------------------|
B|--------------------------------------------------------------------|
G|--------------------------------------------------------------------| 2x
D|--7~~~~~~~~~~~~~~~~~~~~~~~~~~~~~~~~~~~~~~~~~~~~~~~~~~~~~~~~~~-------|
A|--7~~~~~~~~~~~~~~~~~~~~~~~~~~~~~~~~~~~~~~~~~~~~~~~~~~~~~~~~~~-------|
E|--5~~~~~~~~~~~~~~~~~~~~~~~~~~~~~~~~~~~~~~~~~~~~~~~~~~~~~~~~~~-------|  

  Just Guitar 1 
e|--------------------------------------------------------------------|
B|--------------------------------------------------------------------|
G|--------------------------------------------------------------------|
D|--7~~~~~~~~~~~~~7x7~~~~~~~~~~~~~7x7~~~~~~~~~~~~~7x7~~~~~~~~~~~~~~~--|
A|--7~~~~~~~~~~~~~7x7~~~~~~~~~~~~~7x7~~~~~~~~~~~~~7x7~~~~~~~~~~~~~~~--|
E|--5~~~~~~~~~~~~~5x5~~~~~~~~~~~~~5x5~~~~~~~~~~~~~5x5~~~~~~~~~~~~~~~--|
 





Comments


Popular Jfa tabs & chords
Axed At Howards Tabs
Beach Blanket Bongout Tabs
Beach Blanket Bongout 1 Tabs
Cokes And Snickers Tabs
Jodie Foster's Army Tabs
Johnny D Tabs
Kick You Tabs
Out Of School Tabs
Skateboard Tabs
We Know You Suck Tabs


Song lyrics



↑ Back to top | Tablatures and chords are parodies/interpretations of the original songs. You may use it for private study, scholarship, research or language learning purposes only
© 2014 AZChords.com Contact us | Privacy policy | DMCA | Add/correct tabs | Request tabs | Top 50 tabs