» » »

Jfa, Cokes And Snickers Tabs (ver.1)

Artists:  A B C D E F G H I J K L M N O P Q R S T U V W X Y Z # 

Cokes And Snickers Tabs (ver.1)

Jfa Tabs
 Rating:
4/5 (4 votes)
Cokes And Snickers lessons Tabs too difficult? Try these video lessons and learn fast
1
                -------------------------------------------------------------------------------
Blatant Localism
-------------------------------------------------------------------------------

Tuning:

e|-----------------------------------------------------------------|
B|-----------------------------------------------------------------|
G|-9-9-9-9-9-9-9-9-9-9-9-9-9-9-9-9-7-7-7-7-7-7-7-7-7-7-7-7-7-7-7-7-|
D|-7-7-7-7-7-7-7-7-7-7-7-7-7-7-7-7-5-5-5-5-5-5-5-5-5-5-5-5-5-5-5-5-|
A|-----------------------------------------------------------------|
E|-----------------------------------------------------------------| x2

e|-------------------------------------------------|
B|-------------------------------------------------|
G|-5----4----9----8/9-9----5----4----9----8/9-9----|
D|-3----2----7----6/7-7----3----2----7----6/7-7----|
A|-------------------------------------------------|
E|-------------------------------------------------|

e|-----------------------------------------------------------------|
B|-----------------------------------------------------------------|
G|-9-9-9-9-9-9-9-9-9-9-9-9-9-9-9-9-7-7-7-7-7-7-7-7-7-7-7-7-7-7-7-7-|
D|-7-7-7-7-7-7-7-7-7-7-7-7-7-7-7-7-5-5-5-5-5-5-5-5-5-5-5-5-5-5-5-5-|
A|-----------------------------------------------------------------|
E|-----------------------------------------------------------------| x2

e|-------------------------------------------------|
B|-------------------------------------------------|
G|-5----4----9----8/9-9----5----4----9----8/9-9----|
D|-3----2----7----6/7-7----3----2----7----6/7-7----|
A|-------------------------------------------------|
E|-------------------------------------------------|

e|-----------------------------------------------------------------|
B|-----------------------------------------------------------------|
G|-----------------------------------------------------------------|
D|-----------------------------------------------------------------|
A|-----------------------------------------------------------------|
E|-5-5-5-5-5-5-5-5-5-5-5-5-5-5-5-5-4-4-4-4-4-4-4-4-4-4-4-4-4-4-4-4-| x2

e|-------------------------------------------------|
B|-------------------------------------------------|
G|-5----4----9----8-9-9-------------------8/9-9----|
D|----------------6/7-7----3----2----7----6/7-7----|
A|-------------------------------------------------|
E|-------------------------------------------------|

e|-----------------------------------------------------------------|
B|-----------------------------------------------------------------|
G|-9-9-9-9-9-9-9-9-9-9-9-9-9-9-9-9-7-7-7-7-7-7-7-7-7-7-7-7-7-7-7-7-|
D|-7-7-7-7-7-7-7-7-7-7-7-7-7-7-7-7-5-5-5-5-5-5-5-5-5-5-5-5-5-5-5-5-|
A|-----------------------------------------------------------------|
E|-----------------------------------------------------------------| x2

e|-------------------------------------------------|
B|-------------------------------------------------|
G|-5----4----9----8/9-9----5----4----9----8/9-9----|
D|-3----2----7----6/7-7----3----2----7----6/7-7----|
A|-------------------------------------------------|
E|-------------------------------------------------|


| /  slide up
| \  slide down
| h  hammer-on
| p  pull-off
| ~  vibrato
| +  harmonic
| x  Mute note
===============================================================================
            
Submit corrections

comments powered by Disqus
↑ Back to top | Jfa Tabs for Cokes And Snickers. Lyrics for acoustic guitar and electric guitar. 1 Tablatures and chords are parodies/interpretations of the original songs. You may use it for private study, scholarship, research or language learning purposes only