» » »

Beach Blanket Bongout Tabs (ver.2)

Artists:  A B C D E F G H I J K L M N O P Q R S T U V W X Y Z # 

Beach Blanket Bongout Tabs (ver.2)

Jfa
Rating:
5/5 (1 vote)

Hard to play? Try these video lessons and learn fast.
                b = bend
x = lay your fingers flat across strings

Intro 3x
e|--------------8887--------------------8887--------------------8887----|
B|-10-1010-8-88-8887-7-----10-1010-8-88-8887-7-----10-1010-8-88-8887-7--|
G|--9--9-9-7-77------9b-----9--9-9-7-77------9b-----9--9-9-7-77------9b-|
D|----------------------------------------------------------------------|
A|----------------------------------------------------------------------|
E|----------------------------------------------------------------------|

e|--------------8887-7--|-----|
B|-10-1010-8-88-8887-7--|-----|
G|--9--9-9-7-77---------|-----|
D|----------------------|--9~-|
A|----------------------|--7~-|
E|----------------------|-----|


Main Verse 
e|-----------------3------------------------------7-----|
B|-------------------3------------------------------7---|
G|---------------------4------------------------------8-|
D|------------------------------------------------------|
A|-77777777-555555-------1010101010101010-999999--------|
E|-55555555-333333--------8-8-8-8-8-8-8-8-777777--------|

e|-----------------3------------------------------7-----|-----|
B|-------------------3------------------------------7---|-----|
G|---------------------4------------------------------8-|-----|
D|------------------------------------------------------|--9~-|
A|-77777777-555555-------1010101010101010-999999--------|--7~-|
E|-55555555-333333--------8-8-8-8-8-8-8-8-777777--------|-----|


Chorus
e|---------------------------------------------------------|
B|---------------------------------------------------------|
G|---------------------------------------------------------|
D|-9-9999999-7-7777777-12-12121212121212-11-11111111111111-|
A|-7-7777777-5-5555555-10-10101010101010--9--9-9-9-9-9-9-9-|
E|---------------------------------------------------------|


Bridge
e|-------------------------------------------|
B|-------------------------------------------|
G|-------------------------------------------|
D|-7-777-9-999-10-xxxxx-7-777-9-999-10-xxxxx-|
A|-5-555-7-777--8-xxxxx-5-555-7-777--8-xxxxx-|
E|-------------------------------------------|

e|---------------------------------------------------|
B|---------------------------------------------------|
G|---------------------------------------------------|
D|---------------------------------------------------|
A|-9-999-11-111111-12-xxxxx-9-999-11-111111-12-xxxxx-|
E|-7-777--9--9-9-9-10-xxxxx-7-777--9--9-9-9-10-xxxxx-|


Solo
e|-12-12121212121212-10-10101010101010-3-3333333-2-2222222-|
B|-12-12121212121212-10-10101010101010-3-3333333-2-2222222-|
G|---------------------------------------------------------|
D|---------------------------------------------------------|
A|---------------------------------------------------------|
E|---------------------------------------------------------|

e|-12-12121212121212-10-10101010101010-15-15151515151515-14-14141414141414-|
B|-12-12121212121212-10-10101010101010-15-15151515151515-14-14141414141414-|
G|-------------------------------------------------------------------------|
D|-------------------------------------------------------------------------|
A|-------------------------------------------------------------------------|
E|-------------------------------------------------------------------------|

e|-12-12121212121212-10-10101010101010-3-3333333-------|
B|-12-12121212121212-10-10101010101010-3-3333333-2--2--|
G|-----------------------------------------------4b-4b-|
D|-----------------------------------------------------|
A|-----------------------------------------------------|
E|-----------------------------------------------------|

e|-12-12121212121212-10-10101010101010-15-15151515151515---------|
B|-12-12121212121212-10-10101010101010-15-15151515151515-14--14--|
G|-------------------------------------------------------16b-16b-|
D|---------------------------------------------------------------|
A|---------------------------------------------------------------|
E|---------------------------------------------------------------|
            
Hard to play? Try these video lessons and learn fast. | Correct




comments powered by Disqus
↑ Back to top | Tablatures and chords are parodies/interpretations of the original songs. You may use it for private study, scholarship, research or language learning purposes only