» » »

Jfa, Beach Blanket Bongout Tabs (ver.1)

Artists:  A B C D E F G H I J K L M N O P Q R S T U V W X Y Z # 

Beach Blanket Bongout Tabs (ver.1)

Jfa Tabs
Rating:
5/5 (4 votes)
Beach Blanket Bongout lessons Tabs too difficult? Try these video lessons and learn fast
                

X - Mute the strings, stop sound before next note.
~ - Hold note/chord after you strum it, let ring.
/ - Slide
PM_ - palm mute

*Intro*
e|--------------------8-8-8-7-------|          e|------|
B|-11--11-11--8--8-8--8-8-8-7-------|          B|------| < Play once and let
G|-10--10-10--7--7-7----------------|          G|--9~--|   ring after the 
D|----------------------------9/11--|play 4x   D|--9~--|   intro
A|----------------------------------|          A|--7~--|
E|----------------------------------|          E|------|

*Verse* "Party on the sand..."
e|------------------------3--------------------------------7------|         
B|--------------------------3--------------------------------7----|         
G|-9-9-9-9-9-9-9-9------------4------5-5-5-5-5-5-5-5-----------7--|
D|-9-9-9-9-9-9-9-9-5-5-5-------------5-5-5-5-5-5-5-5-9-9-9--------| < play  
A|-7-7-7-7-7-7-7-7-5-5-5-------------3-3-3-3-3-3-3-3-9-9-9--------|   2x   
E|-----------------3-3-3-----------------------------7-7-7--------|       
   PM_ _ _ _ _ _ _ _ _ _             _ _ _ _ _ _ _ _ _ _ _

        
 e|------|
 B|------| 
 G|--9~--|  
 D|--9~--|   
 A|--7~--|
 E|------|


*REPEAT AGAIN*

*Chorus* "Beach blanket, bongload oh oh oh..."
e|-------------------------------------------------------|
B|-------------------------------------------------------|
G|-9-9-9-9-9--7-7-7-7-7--12-12-12-12-12--11-11-11-11-11--|
D|-9-9-9-9-9--7-7-7-7-7--12-12-12-12-12--11-11-11-11-11--| < play 4x
A|-7-7-7-7-7--5-5-5-5-5--10-10-10-10-10---9--9--9--9--9--|
E|-------------------------------------------------------|

*Then play* "What happened to fun..."
e|----------------------|
B|----------------------|
G|-9-9--11-11--12-xxxxx-|
D|-9-9--11-11--12-xxxxx-| < play 4x
A|-7-7---9--9--10-xxxxx-|
E|----------------------|

e|-------------------------------------------------------|            |----|
B|-------------------------------------------------------|            |----|
G|-9-9-9-9-9--7-7-7-7-7--12-12-12-12-12--11-11-11-11-11--|            |-9~-|
D|-9-9-9-9-9--7-7-7-7-7--12-12-12-12-12--11-11-11-11-11--| < play 2x  |-9~-|
A|-7-7-7-7-7--5-5-5-5-5--10-10-10-10-10---9--9--9--9--9--|            |-7~-|
E|-------------------------------------------------------|            |----|

*REPEAT VERSE*
*CHORUS*

*Bridge* has two guitars, the first guitar plays the chorus
         riff the second plays lead.
*guitar 1* 
e|-------------------------------------------------------|
B|-------------------------------------------------------|
G|-9-9-9-9-9--7-7-7-7-7--12-12-12-12-12--11-11-11-11-11--|
D|-9-9-9-9-9--7-7-7-7-7--12-12-12-12-12--11-11-11-11-11--| < play 8x
A|-7-7-7-7-7--5-5-5-5-5--10-10-10-10-10---9--9--9--9--9--|
E|-------------------------------------------------------|

*guitar 2*  This starts on the third time
e|-12-12-12-12-12/10-10-10-10-10/15-15-15-15-15/14-14-14-14-14/--|
B|---------------------------------------------------------------|
G|---------------------------------------------------------------|
D|---------------------------------------------------------------| < 6x
A|---------------------------------------------------------------|
E|---------------------------------------------------------------|

*CHORUS*
*END*
            
Submit corrections

comments powered by Disqus
↑ Back to top | Jfa Tabs for Beach Blanket Bongout. Lyrics for acoustic guitar and electric guitar. Tablatures and chords are parodies/interpretations of the original songs. You may use it for private study, scholarship, research or language learning purposes only