» » »

Bad Reputation Bass tabs (ver.1)

Artists:  A B C D E F G H I J K L M N O P Q R S T U V W X Y Z # 

Bad Reputation Bass tabs (ver.1)

Jett Joan
Rating:
0/5 (0 votes)

Hard to play? Try these video lessons and learn fast.
                A fairly easy song but enough to get you jumping.
Intro 
G|------------------------
D|------------------------
A|2-222-(222)------------- x15
E|------------------------
Verse (same as Intro but more pauses)
G|-----------------
D|-----------------
A|2-222-222-222-22
E|-----------------
Chorus
G|-----------------------------------
D|-----------------------------------
A|7-777-77-9-999-99-7-77-9-6-4---2
E|-----------------------------------
Bridge (right after Chorus)
G|---------------------
D|----2-22-4-44--------
A|2-22---------2-22----
E|---------------------
About 1:09 into the song it shifts up
Verse
G|-----------------
D|-----------------
A|4-444-444-444-44
E|-----------------
Chorus (11's not 1's)
G|-------------------------------------
D|-------------------------------------
A|9-999-99-11-111-11-9-99-11-8-6---4
E|-------------------------------------
Bridge
G|------------------
D|----4-44-6-66----
A|4-44---------4-44
E|------------------
During the Solo just play the shifted up verse
            
Hard to play? Try these video lessons and learn fast. | Correct




comments powered by Disqus
↑ Back to top | Tablatures and chords are parodies/interpretations of the original songs. You may use it for private study, scholarship, research or language learning purposes only