» » »

Jesus Culture, Come Away Tabs (ver.1)

Artists:  A B C D E F G H I J K L M N O P Q R S T U V W X Y Z # 

Come Away Tabs (ver.1)

Jesus Culture Tabs
 Rating:
4.4/5 (7 votes)
Come Away lessons Tabs too difficult? Try these video lessons and learn fast
                Tuning: Standard

| ~   let ring
| /   slide up
| ()  ghost note
| .   palm-mute

All guitars tuned EADGBe
 {Gtr 1 - distorted electric
 {Gtr 2 - clean electric with some twang

I love how refreshingly different this song is. Here's how to play it:

[Intro] The timing is definitely weird in some of these parts. Be sure to listen to the 
song to get it down.
       ~Part 1~
  {Gtr 1
e|--------------------------------0~--|
B|------6~--6--------------6~--8------|
G|-------------9--0~------------------| x2
D|----7------------------7------------|
A|------------------------------------|
E|--8------------------8--------------|

       ~Part 2~
  {Gtr 1
e|-------------0----0----0------------------------------|
B|-------6--6-----1----1----1----1----1--------(1)---1--|
G|------------------------------------------------------|
D|-----7--------------------------------(2)-------------|
A|-----------------------------3----3-------(3)---------|
E|--/8--------------------------------------------------|

  {Gtr 1
e|-------------0----0----0---------------|
B|-------6--8-----1----1---1-0----0------|
G|------------------------------0----0~--|
D|-----7---------------------------------|
A|--/8-----------------------------------|
E|---------------------------------------|

[Verse]
  {Gtr 2
    Csus4   C        Am
e|-------------------------------------|
B|-------------------------------------|
G|-------------------------------------|
D|--5555555555555555-2222222222222222--|
A|--3333333333333333-0000000000000000--|
E|-------------------------------------|
    .................................

  {Gtr 2
    F        C        G
e|--------------------------------------|
B|--------------------------------------|
G|----------------------7--7-7--7--7-7--|
D|--33333333-22222222-5555555555555555--|
A|--33333333-33333333-5555555555555555--|
E|--------------------------------------|
    ..................................

[Chorus] Gtr 1 plays Part 2 of the Intro
  {Gtr 2
    Csus4     C         Am
e|--11111111--00000000--0000000000000000--|
B|--11111111--11111111--1111111111111111--|
G|--00000000--00000000--2222222222222222--|
D|--33333333--22222222--2222222222222222--|
A|--33333333--33333333--0000000000000000--|
E|----------------------------------------|

  {Gtr 2
    F         C         G
e|--11111111--00000000--3333333333333333--|
B|--11111111--11111111--3333333333333333--|
G|--22222222--00000000--0000000000000000--|
D|--33333333--22222222--0000000000000000--|
A|--33333333--33333333--2222222222222222--|
E|--11111111------------3333333333333333--|

[Bridge]
  {Gtr 1
e|--13-13-15----------------------------------------------|
B|--13-13-13-13~--13-13/15-15~------15-15-15-15-15-15-12--|
G|-----------12~--9--9-/12-12~------12-12-12-12-12-12-12--|
D|--------------------------------------------------------|
A|--------------------------------------------------------|
E|--------------------------------------------------------|

  {Gtr 2
    F         C         G
e|--11111111--00000000--3333333333333333--|
B|--11111111--11111111--0000000000000000--|
G|--22222222--00000000--0000000000000000--|
D|--33333333--22222222--0000000000000000--|
A|--33333333--33333333--2222222222222222--|
E|--11111111------------3333333333333333--|

And that covers it! God bless. :)
            
Submit corrections

comments powered by Disqus
↑ Back to top | Jesus Culture Tabs for Come Away. Lyrics for acoustic guitar and electric guitar. Tablatures and chords are parodies/interpretations of the original songs. You may use it for private study, scholarship, research or language learning purposes only