» » »

Who You Are Chords (ver.1)

Artists:  A B C D E F G H I J K L M N O P Q R S T U V W X Y Z # 

Who You Are Chords (ver.1)

Jessie James
Rating:
5/5 (2 votes)

Hard to play? Try these video lessons and learn fast.
                I'll update this again and this is not yet Finish because no lyrics

[Intro:]
     A            D           A              D
e|-----------|-----------|---------------|-------|
B|-----------|--0---0----|---------------|--3----|
G|--2---2----|--2---2----|--2---2---2----|--2----|
D|--2---2----|--0-0-0-0--|--2---2---2----|--0-0--|
A|--0-0-0-0--|-----------|--0-0-0-0-0-0--|-------|
E|-----------|-----------|---------------|-------|


     A            D           A             E
e|-----------|-----------|---------------|------|
B|-----------|--0---0----|---------------|------|
G|--2---2----|--2---2----|--2---2---2----|--1---|
D|--2---2----|--0-0-0-0--|--2---2---2----|--2---|
A|--0-0-0-0--|-----------|--0-0-0-0-0-0--|------|
E|-----------|-----------|---------------|--0-0-|




[Verse 1]

    A            D           A              D
e|-----------|-----------|---------------|-------|
B|-----------|--0---0----|---------------|--3----|
G|--2---2----|--2---2----|--2---2---2----|--2----|
D|--2---2----|--0-0-0-0--|--2---2---2----|--0-0--|
A|--0-0-0-0--|-----------|--0-0-0-0-0-0--|-------|
E|-----------|-----------|---------------|-------|


    A            D           A              D
e|-----------|-----------|---------------|-------|
B|-----------|--0---0----|---------------|--3----|
G|--2---2----|--2---2----|--2---2---2----|--2----|
D|--2---2----|--0-0-0-0--|--2---2---2----|--0-0--|
A|--0-0-0-0--|-----------|--0-0-0-0-0-0--|-------|
E|-----------|-----------|---------------|-------|


     A            D           A             E
e|-----------|-----------|---------------|------|
B|-----------|--0---0----|---------------|------|
G|--2---2----|--2---2----|--2---2---2----|--1---|
D|--2---2----|--0-0-0-0--|--2---2---2----|--2---|
A|--0-0-0-0--|-----------|--0-0-0-0-0-0--|------|
E|-----------|-----------|---------------|--0-0-|



     A            D           A             E
e|-----------|-----------|---------------|------|
B|-----------|--0---0----|---------------|------|
G|--2---2----|--2---2----|--2---2---2----|--1---|
D|--2---2----|--0-0-0-0--|--2---2---2----|--2---|
A|--0-0-0-0--|-----------|--0-0-0-0-0-0--|------|
E|-----------|-----------|---------------|--0-0-|



[Chorus]
     A            D           A             E
e|-----------|-----------|---------------|------|
B|-----------|--0---0----|---------------|------|
G|--2---2----|--2---2----|--2---2---2----|--1---|
D|--2---2----|--0-0-0-0--|--2---2---2----|--2---|
A|--0-0-0-0--|-----------|--0-0-0-0-0-0--|------|
E|-----------|-----------|---------------|--0-0-|




     A            D           A             E
e|-----------|-----------|---------------|------|
B|-----------|--0---0----|---------------|------|
G|--2---2----|--2---2----|--2---2---2----|--1---|
D|--2---2----|--0-0-0-0--|--2---2---2----|--2---|
A|--0-0-0-0--|-----------|--0-0-0-0-0-0--|------|
E|-----------|-----------|---------------|--0-0-|




     A            D           A             E
e|-----------|-----------|---------------|------|
B|-----------|--0---0----|---------------|------|
G|--2---2----|--2---2----|--2---2---2----|--1---|
D|--2---2----|--0-0-0-0--|--2---2---2----|--2---|
A|--0-0-0-0--|-----------|--0-0-0-0-0-0--|------|
E|-----------|-----------|---------------|--0-0-|


     A            D           A             E
e|-----------|-----------|---------------|------|
B|-----------|--0---0----|---------------|------|
G|--2---2----|--2---2----|--2---2---2----|--1---|
D|--2---2----|--0-0-0-0--|--2---2---2----|--2---|
A|--0-0-0-0--|-----------|--0-0-0-0-0-0--|------|
E|-----------|-----------|---------------|--0-0-|



     A            D           A             E
e|-----------|-----------|---------------|------|
B|-----------|--0---0----|---------------|------|
G|--2---2----|--2---2----|--2---2---2----|--1---|
D|--2---2----|--0-0-0-0--|--2---2---2----|--2---|
A|--0-0-0-0--|-----------|--0-0-0-0-0-0--|------|
E|-----------|-----------|---------------|--0-0-|



     A            D           A             E
e|-----------|-----------|---------------|------|
B|-----------|--0---0----|---------------|------|
G|--2---2----|--2---2----|--2---2---2----|--1---|
D|--2---2----|--0-0-0-0--|--2---2---2----|--2---|
A|--0-0-0-0--|-----------|--0-0-0-0-0-0--|------|
E|-----------|-----------|---------------|--0-0-|



verse 2

     A            D           A             E
e|-----------|-----------|---------------|------|
B|-----------|--0---0----|---------------|------|
G|--2---2----|--2---2----|--2---2---2----|--1---|
D|--2---2----|--0-0-0-0--|--2---2---2----|--2---|
A|--0-0-0-0--|-----------|--0-0-0-0-0-0--|------|
E|-----------|-----------|---------------|--0-0-|


     A            D           A             E
e|-----------|-----------|---------------|------|
B|-----------|--0---0----|---------------|------|
G|--2---2----|--2---2----|--2---2---2----|--1---|
D|--2---2----|--0-0-0-0--|--2---2---2----|--2---|
A|--0-0-0-0--|-----------|--0-0-0-0-0-0--|------|
E|-----------|-----------|---------------|--0-0-|


     A            D           A             E
e|-----------|-----------|---------------|------|
B|-----------|--0---0----|---------------|------|
G|--2---2----|--2---2----|--2---2---2----|--1---|
D|--2---2----|--0-0-0-0--|--2---2---2----|--2---|
A|--0-0-0-0--|-----------|--0-0-0-0-0-0--|------|
E|-----------|-----------|---------------|--0-0-|



     A            D           A             E
e|-----------|-----------|---------------|------|
B|-----------|--0---0----|---------------|------|
G|--2---2----|--2---2----|--2---2---2----|--1---|
D|--2---2----|--0-0-0-0--|--2---2---2----|--2---|
A|--0-0-0-0--|-----------|--0-0-0-0-0-0--|------|
E|-----------|-----------|---------------|--0-0-|



     A            D           A             E
e|-----------|-----------|---------------|------|
B|-----------|--0---0----|---------------|------|
G|--2---2----|--2---2----|--2---2---2----|--1---|
D|--2---2----|--0-0-0-0--|--2---2---2----|--2---|
A|--0-0-0-0--|-----------|--0-0-0-0-0-0--|------|
E|-----------|-----------|---------------|--0-0-|


[Chorus]
            
Hard to play? Try these video lessons and learn fast. | Correct




comments powered by Disqus
↑ Back to top | Tablatures and chords are parodies/interpretations of the original songs. You may use it for private study, scholarship, research or language learning purposes only