» » »

My Cowboy Tabs (ver.1)

Artists:  A B C D E F G H I J K L M N O P Q R S T U V W X Y Z # 

My Cowboy Tabs (ver.1)

Jessie James
Rating:
0/5 (0 votes)

Hard to play? Try these video lessons and learn fast.
                Ok, This my take on this song for an Acoustic duo performance...I do this with a female 
singer ...it works...people like it..
I did my best to transpose the Banjo for guitar...the Banjo repeats pretty much 
throughout the song, with a few Power (barre) chords thrown it..and a timely pause here and 
there...and if you can get the crowd to clap in place of the kick drum it helps too!
Listen to the original to get the feel and structure...and of course play with it a bit 
to make it your own...this is meant to be a guide..not a definitive chart!...all 
corrections and additions are welcome...go easy...this is my first tab lmao!
Enjoy and I hope SOMEONE finds this helpful!

Jessie James - My Cowboy


intro riff, (Banjo arr for Guitar) Also Verses, and outro..

E--5------------------------|
B----8-5------5-------------|
G---------5h7---7p5---7p5---|
D-------------------------7-|
A---------------------------|
E---------------------------|

E--5----------------8-5---|
B----8-5------5-----------|
G---------5h7---7p5-------|
D-------------------------|
A-------------------------|
E-------------------------|

E--5------------------------|
B----8-5------5-------------|
G---------5h7---7p5---7p5---|
D-------------------------7-|
A---------------------------|
E---------------------------|

E----------------------------|
B-------5----5---------------|
G-5h7----5h7---5--7p5--------|
D---------------------7p5-7--|
A----------------------------|
E----------------------------|    (2xs)


You're gonna have to meet my mama
Gonna learn to say, yes mam
Gotta learn to call me hun
If you wanna be my cowboy

Gotta treat me like a lady
Get the door and hold my hand
Better tell me that I'm pretty
If you wanna be my cowboy

I ain't got no time for players
Ain't no one ride rodeo
Ain't got room for no heartbreakers
Giddy up, giddy up, go

Grab my hand and take me dancing
Show me off to all your friends
Rub my back and call me baby
       G
If you wanna be my cowboy
D  C  A,  D  C  G, D  C A,  C B  +(riff2)
Oh, ya ya

Better buy my favorite pony
Better learn my favorite song
Gotta lay some bling upon me
If you wanna be my cowboy

I ain't got no time for players
Ain't no one ride rodeo
Ain't got room for no heartbreakers
Giddy up, giddy up, go

Grab my hand and take me dancing
Show me off to all your friends
Rub my back and call me baby
 (stop)
If you wanna be my cowboy

F ////////////////                   A,A  G  C   A,A  G C
Saddle up and take me for a little ride..        whoa yeah ya hey
F //////////////
Lay me down on a blanket yeahhh
D ///////////      Evii
  By the river side___
D  C  A,  D  C  G,    D  C A,   C B  +(riff2)
 yeah, yeah, yeah     Woooo    Come on boys

I ain't got no time for players
Ain't no one ride rodeo
Ain't got room for no heartbreakers
Giddy up, giddy up, go

Grab my hand and take me dancing
Show me off to all your friends
Rub my back and call me baby
(stop)
If you wanna be my cowboy
G
Wanna be my cowboy
D  C  A,  D  C  G, D  C A,  C B (2xs)
                            Oh, ya ya ya

Intro/Outro riff...

riff2
E-----------|
B-----------|
G-4brp-2----|
D-------4---|
A-----------|
E-----------|
            
Hard to play? Try these video lessons and learn fast. | Correct




comments powered by Disqus
↑ Back to top | Tablatures and chords are parodies/interpretations of the original songs. You may use it for private study, scholarship, research or language learning purposes only