» » »

Jessie J, Price Tag 1 Tabs (ver.3)

Artists:  A B C D E F G H I J K L M N O P Q R S T U V W X Y Z # 

Price Tag 1 Tabs (ver.3)

Jessie J Tabs
 Rating:
4/5 (4 votes)
Price Tag 1 lessons Tabs too difficult? Try these video lessons and learn fast
                Price Tag - Jessie J

Tuning: Standard

Intro
e|--13--13-13--13-13--xx--12--12-12--12-12--xx--10--10-10--10-10--xx--------------------|
B|--10--10-10--10-10--xx--10--10-10--10-10--xx--6---6--6---6--6---xx--11--11-11--11-11--|
G|--10--10-10--10-10--xx--9---9--9---9--9---xx--7---7--7---7--7---xx--10--10-10--10-10--|
D|--10--10-10--10-10--xx--10--10-10--10-10--xx--------------------xx--8---8--8---8--8---|
A|----------------------------------------------------------------xx--------------------|
E|----------------------------------------------------------------xx--------------------|

Verse
e|--13--13-13--13-13--xx--12--12-12--12-12--xx--10--10-10--10-10--xx--------------------|
B|--10--10-10--10-10--xx--10--10-10--10-10--xx--6---6--6---6--6---xx--11--11-11--11-11--|
G|--10--10-10--10-10--xx--9---9--9---9--9---xx--7---7--7---7--7---xx--10--10-10--10-10--|x2
D|--10--10-10--10-10--xx--10--10-10--10-10--xx--------------------xx--8---8--8---8--8---|
A|----------------------------------------------------------------xx--------------------|
E|----------------------------------------------------------------xx--------------------|

e|--13--13-13--13-13--xx--12--12-12--12-12--xx--10--10-10--10-10--xx--------------------|
B|--10--10-10--10-10--xx--10--10-10--10-10--xx--6---6--6---6--6---xx--------------------|
G|--10--10-10--10-10--xx--9---9--9---9--9---xx--7---7--7---7--7---xx-------drums--------|
D|--10--10-10--10-10--xx--10--10-10--10-10--xx--------------------xx--------------------|
A|----------------------------------------------------------------xx--------------------|
E|----------------------------------------------------------------xx--------------------|


Chorus
e|--13--13-13--13-13--xx--12--12-12--12-12--xx--10--10-10--10-10--xx--------------------|
B|--10--10-10--10-10--xx--10--10-10--10-10--xx--6---6--6---6--6---xx--11--11-11--11-11--|
G|--10--10-10--10-10--xx--9---9--9---9--9---xx--7---7--7---7--7---xx--10--10-10--10-10--|x2
D|--10--10-10--10-10--xx--10--10-10--10-10--xx--------------------xx--8---8--8---8--8---|
A|----------------------------------------------------------------xx--------------------|
E|----------------------------------------------------------------xx--------------------|

fill
e|------------|
B|------------|
G|------------| 
D|--10h12p10--| 
A|------------| 
E|------------|


Verse 2
e|13--13-13--13-13--xx--12--12-12--12-12--xx--10--10-10--10-10--xx--------------------|----------|
B|10--10-10--10-10--xx--10--10-10--10-10--xx--6---6--6---6--6---xx--11--11-11--11-11--|----------|
G|10--10-10--10-10--xx--9---9--9---9--9---xx--7---7--7---7--7---xx--10--10-10--10-10--|----------|
D|10--10-10--10-10--xx--10--10-10--10-10--xx--------------------xx--8---8--8---8--8---|--10h12p10|
A|--------------------------------------------------------------xx--------------------|----------|
E|--------------------------------------------------------------xx--------------------|----------|

                     not too sure if this part's right :P
e|13--/17-17-17-17-17-15--12--/15-15-15-15-15-12--10--/13-13-13-13-13-10--11-----------------|
B|10----------------------10----------------------6-----------------------10-----------------|
G|10----------------------9-----------------------7-----------------------8--------9-10------|
D|10----------------------10-------------------------------------------------10h12------12p10|
A|-------------------------------------------------------------------------------------------|
E|-------------------------------------------------------------------------------------------|

e|--13--/17-17-17-17-17-15--12--/15-15-15-15-15-12--10--/13-13-13-13-13-10--|----------|--------|
B|--10----------------------10----------------------6-----------------------|----------|--------|
G|--10----------------------9-----------------------7-----------------------|--drums---|--------|
D|--10----------------------10----------------------------------------------|----------|---10h12|
A|--------------------------------------------------------------------------|----------|--------|
E|--------------------------------------------------------------------------|----------|--------|


Chorus
e|--13--13-13--13-13--xx--12--12-12--12-12--xx--10--10-10--10-10--xx--------------------|
B|--10--10-10--10-10--xx--10--10-10--10-10--xx--6---6--6---6--6---xx--11--11-11--11-11--|
G|--10--10-10--10-10--xx--9---9--9---9--9---xx--7---7--7---7--7---xx--10--10-10--10-10--|
D|--10--10-10--10-10--xx--10--10-10--10-10--xx--------------------xx--8---8--8---8--8---|x2
A|----------------------------------------------------------------xx--------------------|
E|----------------------------------------------------------------xx--------------------|

fill
e|------------|
B|------------|
G|------------| 
D|--10h12p10--| 
A|------------| 
E|------------|


B.o.B's part
e|--13--/17-17-17-17-17-15--12--/15-15-15-15-15-12--10--/13-13-13-13-13-10--11-------------------|
B|--10----------------------10----------------------6-----------------------10-------------------|
G|--10----------------------9-----------------------7-----------------------8--------9-10--------|
D|--10----------------------10-------------------------------------------------10h12------12p10--|
A|-----------------------------------------------------------------------------------------------|
E|-----------------------------------------------------------------------------------------------|
x2

e|--13--/17-17-17----12--/15-15-15----10--/13-13-13----11-10------------------------|
B|--10---------------10----------------6---------------10-10------------------------|
G|--10---------------9-----------------7---------------8--8---------9-10------------|
D|--10---------------10---------------------------------------10h12------12p10------|
A|----------------------------------------------------------------------------------|
E|----------------------------------------------------------------------------------|


Chorus
e|--13--13-13--13-13--xx--12--12-12--12-12--xx--10--10-10--10-10--xx--------------------|
B|--10--10-10--10-10--xx--10--10-10--10-10--xx--6---6--6---6--6---xx--11--11-11--11-11--|
G|--10--10-10--10-10--xx--9---9--9---9--9---xx--7---7--7---7--7---xx--10--10-10--10-10--|
D|--10--10-10--10-10--xx--10--10-10--10-10--xx--------------------xx--8---8--8---8--8---|x4
A|----------------------------------------------------------------xx--------------------|
E|----------------------------------------------------------------xx--------------------|


Outro
e|--13--/17-17-17-17-17-15--12--/15-15-15-15-15-12--10--/13-13-13-13-13-10--11------------------|
B|--10----------------------10----------------------6-----------------------10------------------|
G|--10----------------------9-----------------------7-----------------------8--------10-12-10~~-|
D|--10----------------------10-------------------------------------------------10h12------------|
A|----------------------------------------------------------------------------------------------|
E|----------------------------------------------------------------------------------------------|
x2
            
Submit corrections

comments powered by Disqus
↑ Back to top | Jessie J Tabs for Price Tag 1. Lyrics for acoustic guitar and electric guitar. Tablatures and chords are parodies/interpretations of the original songs. You may use it for private study, scholarship, research or language learning purposes only