» » »

De Toi Moi Just So Your Know Tabs (ver.1)

Artists:  A B C D E F G H I J K L M N O P Q R S T U V W X Y Z # 

De Toi Moi Just So Your Know Tabs (ver.1)

Jesse Mccartney
Rating:
5/5 (2 votes)

Tabs too difficult? Try these video lessons and learn fast.
                (Live)
soundcloud.com/ginnemarker/

Just so you know (de toi a moi)
Jesse McCartney

Capo 2nd fret


Intro:
  Em7        G           D      Cadd9
e--------0----------------------------|
b----------3-------0----------0-(0h3)-|
g----------------0---2p0--2-2----0----|
d------2-------0----------0-0----2----|
a----2---------------------------3----|
e--0---------3------------------------|


verse 1:
   Em7           G           A7sus4  Cadd9
e-------------------------------------------------|
b-------------------------------------------------|
g--------0-----------0h2---------0-0-----2p0---0--|
d------0---0---0---0-------0---2-2-2---2-----2----|x3
a----2-------2-----------0---0-------3------------|
e--0-------------3--------------------------------|

  Em7            G        Asus4
e--------------------------------|
b-------------------------3-3-3--|
g--------0-----------0h2--2-2-2--|
d------0---0---0---0------2-2-2--|
a----2-------2------------0-0-0--|
e--0-------------3---------------|


Chorus 1:
Cadd9    G    D   Em7
Cadd9    G    Dsus2
Cadd9    G    D   Em7 Em7/F#
Cadd9    Em7  D*

   D*
e--2-2-2------------|
b--3-3-3------------|
g--2-2-2---0-2---0--|
d--0-0-0-4-----2----|
a-------------------|
e-------------------|

   Em7       G            D      Cadd9
e--------0----------------------------|
b----------3-------0----------0-(0h3)-|
g----------------0---2p0--2-2----0----|
d------2-------0----------0-0----2----|
a----2---------------------------3----|
e--0---------3------------------------|


verse 2:
     Em7      G        A7sus4   Cadd9
e--x--------x--------x--------x------------|
b--x--------x--------x--------x---------3--|
g--x--------x-0-0-0--x-0-0-0--x-0-0-0---0--|
d--x-0-0-0-x--0-0-0-x--2-2-2-x--2-2-2-x-2--|
a--x-2-2-2-x--2-2-2-x--0-0-0-x--3-3-3-x----|
e--x-0-0-0-x--3-3-3-x--------x--------x----|

     Em7         G      A7sus4         Cadd9
e--x----------------------------------------------------|
b--x-------------------------------------------3--------|
g--x-------------0-0-0---0-0-0-------------0---0-0---0--|
d--x-0-0-0-x-----0-0-0-x-2-2-2-x---------2---2-----2----|
a--x-2-2-2-x-----2-2-2-x-0-0-0-x-0-0-2-3----------------|
e--x-0-0-0-x-0-2-3-3-3-x-------x------------------------|

   Em7             G            A7sus4         Cadd9
e-----------------------------------------------------------|
b------------------------------------3---3------------------|
g--------0---0---------0h2---0-----0-0-------0-----2p0---0--|
d------0-0-x-----0---0-----0-----2-----x---2-----2-----0----|
a----2-----x---2---------------0-------x-------3------------|
e--0-------x-------3-------------------x--------------------|

   Em7            G            Asus4
e-------------------------------------|
b------------------------------3-3-3--|
g--------0---0---------0h2---0-2-2-2--|
d------0-0-x-----0---0-----0---2-2-2--|
a----2-----x---2---------------0-0-0--|
e--0-------x-------3------------------|


Chorus 2:
Cadd9    G    D   Em7
Cadd9    G    Dsus2
Cadd9    G    D   Em7 Em7/F#
Cadd9    Em7  D   Dsus4


Bridge:
A7sus4    Cadd9    G    Dsus2
A7sus4    Cadd9    G    Dsus2    C*

   C*
e--0-------------0---------0--------|
b--1----------3--3-----------3------|
g--0------0h2----0-------0-----0----|
d--2--2-2--------4---------------4--|
a--3-------------0------------------|
e-----------------------------------|

   Em7       G            D      Cadd9
e--------0-------------------------------0------|
b----------3-------0----------0-(0h3)------3----|
g----------------0---2p0--2-2----0-----0-----0--|
d------2-------0----------0-0----2--------------|
a----2---------------------------3--------------|
e--0---------3----------------------------------|

   Em7       G            Asus4
e--------0-------------------------|
b----------3-------0------3-3-3-3--|
g----------------0---2p0--2-2-2-2--|
d------2-------0----------2-2-2-2--|
a----2--------------------0-0-0-0--|
e--0---------3---------------------|


Chorus 3:
Cadd9    G    D   Em7
Cadd9    G    Dsus2
Cadd9    G    D   Em7 Em7/F#
Cadd9    Em7  D*

   D*
e--2-2-2------------|
b--3-3-3------------|
g--2-2-2---0-2---0--|
d--0-0-0-4-----2----|
a-------------------|
e-------------------|

   Em7       G            D      Cadd9
e--------0----------------------------|
b----------3-------0----------0-(0h3)-|
g----------------0---2p0--2-2----0----|
d------2-------0----------0-0----2----|
a----2---------------------------3----|
e--0---------3------------------------|

   Em7       G            D      Cadd9           Em7
e--------0----------------------------------------0--|
b----------3-------0----------0-------------------3--|
g----------------0---2p0--2-2----0-----0----------0--|
d------2-------0----------0-0----2-----0h2p0---0--2--|
a----2---------------------------3---3-------3----2--|
e--0---------3------------------------------------0--|


Chords:

  Em7 Cadd9 Dsus2 Dsus4 A7sus4 Asus4 Em7/F#
e--0----------0-----3-----0------0------0--|
b--3----3-----3-----3-----3------3------3--|
g--0----0-----2-----2-----0------2------0--|
d--2----2-----0-----0-----2------2------2--|
a--2----3-----------------0------0---------|
e--0------------------------------------2--|
            
Tabs too difficult? Try these video lessons and learn fast.




comments powered by Disqus
↑ Back to top | Tablatures and chords are parodies/interpretations of the original songs. You may use it for private study, scholarship, research or language learning purposes only