» » »

Jesse Mccartney, Beautiful Soul Tabs (ver.5)

Artists:  A B C D E F G H I J K L M N O P Q R S T U V W X Y Z # 

Beautiful Soul Tabs (ver.5)

Jesse Mccartney Tabs
Rating:
4/5 (14 votes)
Beautiful Soul lessons Tabs too difficult? Try these video lessons and learn fast
                Jesse McCartney
Beautiful Soul


Bsus2: x24422


Intro/Verse Part 1

E -------0-------------------0-------------------0-----|
B -----------0-------------------3-------------------0-|
G -----2-------------------2-------------------2-------|
D ---2-------------------2-------0-----------2---------|
A -0---------------------------------------------------|
E -----------4---------2-------------------2---------4-|

E -----------------------------------------------------|
B -----------------------------------------------------|
G -----2-----2-----------------------------------------|
D ---2-----2-------------------------------------------|
A -0-----4-----5---------------------------------------|
E -----------------------------------------------------|

Verse Part 2

E ---------2---------------||
B -2----2--3------3--------||
G -2--2-2--2----2---4-4--o-||
D -2--2-2--0--0-----2-2--o-||
A -0--x-0------------------||
E ----4--------------------||

or

E -------------------------||
B -------------------------||
G ---------7------7------O-||
D -7--7-7--7----7---9-9--O-||
A -7--7-7--5--5-----7-7----||
E -5--4-5------------------||


Chorus
                     A      E
I don't want another pretty face
                  Bsus2     D
I don't want just anyone to hold
                A             E
I don't want my love to go to waste
       Bsus2        D
I want you and your beautiful soul


Bridge (w/ dist.)

E -------------------------------------------------------------|
B -------------------------------------------------------------|
G -------------------------------------------------------------|
D -------------------------------------7-----------------------|
A -7h9-9-9--7h9-9--9----7h9-9-9--7h9-9---9--h9-9-9--7h9-9--9---|
E -------------------7---------------------------------------7-|

E -------0-----------------------------------------------------|
B -----3---3---------------------------------------------------|
G -----2-----2-------------------------------------------------|
D -4-5-0-------------------------------------------------------|
A -4-5---------------------------------------------------------|
E -2-3---------------------------------------------------------|
            
Submit corrections

comments powered by Disqus
↑ Back to top | Jesse Mccartney Tabs for Beautiful Soul. Lyrics for acoustic guitar and electric guitar. Tablatures and chords are parodies/interpretations of the original songs. You may use it for private study, scholarship, research or language learning purposes only