» » »

She Was Mine Tabs (ver.1)

Artists:  A B C D E F G H I J K L M N O P Q R S T U V W X Y Z # 

She Was Mine Tabs (ver.1)

Jesse Barrera
Rating:
5/5 (1 vote)

Hard to play? Try these video lessons and learn fast.
                ------------------------------------------------------------------------------
-------------------------------------------------------------------------------

STRUMMING VERSION

Tuning: Standard
INTRO:

e|8----8----6----6--------|
B|10---10---6----6--------|
G|9----8----7----6--------|
D|10---10---8----8--------|
A|8----8----8----8--------|
E|8----8----6----6--------|


VERSE/ BRIDGE

e|1---1---1---1---------|
B|1---1---3---2---------|
G|2---2---3---3---------|
D|3---1---1---3---------|
A|3---3---1---1---------|
E|1---1---1---1---------|

CHORUS

e|X---3---1---X-----X----X-------------|
B|3---5---1---1-----3----3-------------|
G|3---5---2---2-----3----3-------------|
D|3---5---3---2-----3----2-------------|
A|X---3---3---X-----X----3-------------|
E|3---3---1---X-----3----X-------------|




VERSE:
So i hopped on a train three in the afternoon
I don't know when i'm coming back, but i hope that it's soon
See, i never thought (i never though)
That i'd have to leave your side (your side)

It's only physically but know that you will be on my mind
Twenty-four hours at a time
Cause in my eyes, you were mine (you were mine)

CHORUS:
No matter where you go, i won't be very far
Cause in my head i'll be right there where you are
Cause love is no distance baby
Look, love is no distance baby
No, not when it comes to you and me

VERSE:
See, she wrote me a lettter, said the weather wasn't better
But she said that she was doing fine
"i want to see you face to face", that's what she wrote to me that day
And i knew that it was all a sign
So i wrote back with a song, promised it won't be too long
Make up for all our lost time
Cause in my eyes, you were mine (you were mine)

CHORUS:
No matter where you go, i won't be very far
Cause in my head i'll be right there where you are
Cause love is no distance baby
Look, love is no distance baby
No, not when it comes to you and me

BRIDGE:
So i'm going through these boxes, my life's gone off track
It's been three years, she hasn't written back
But in my eyes, she's still mine
And i know it sounds so stupid to be waiting this long
But i'm still in love, and i know i'm not wrong
Cause in my eyes, she was mine

CHORUS:
No matter where you go, i won't be very far
Cause in my head i'll be right there where you are
Cause love is no distance baby
Look, love is no distance baby
No, not when it comes to you and
No matter where you go, i won't be very far
Cause in my head i'll be right there where you are
Cause love is no distance baby
Look, love is no distance baby, no
Not when it comes to you and me 

| /  slide up
| \  slide down
| h  hammer-on
| p  pull-off
| ~  vibrato
| +  harmonic
| x  Mute note
===============================================================================
            
Hard to play? Try these video lessons and learn fast. | Correct




comments powered by Disqus
↑ Back to top | Tablatures and chords are parodies/interpretations of the original songs. You may use it for private study, scholarship, research or language learning purposes only