» » »

Love On A Lifeline Tabs (ver.1)

Artists:  A B C D E F G H I J K L M N O P Q R S T U V W X Y Z # 

Love On A Lifeline Tabs (ver.1)

Jesse Barrera
Rating:
0/5 (0 votes)

Tabs too difficult? Try these video lessons and learn fast.
                
Capo on 3rd fret. and tune the last (e)string a whole step down,
so the tunning will be E,A,D,G,B,D. Enjoy:D


Intro/verse

D|---0---0---0---0---|
B|---1---0---0---3---|
G|---0---0---0---0---|
D|--H2---0---0---4---|
A|---0--H2--H2---5---|
E|-----------3-------|

PRE
                3X
D|---0---0---0--|---0---|
B|---1---0---0--|---0---|
G|---0---0---0--|---0---|
D|---2---0---2--|---1---|
A|---0---2---3--|---3---|
E|--------------|-------|

1st Chorus

D|---0---0---0---0--|
B|---0---1---0---3--|
G|---0---0---0---0--| 2X
D|---0---2---2---4--|
A|---2---0---3---5--|
E|---3--------------|

D|---0---0---0---0--|
B|---1---0---0---3--|
G|---0---0---0---0--| 2x
D|---2---0---2---4--|
A|---0---2---3---5--|
E|------------------|


D|---0---0---0---0--|
B|---0---1---0---3--|
G|---0---0---0---0--| 2X
D|---0---2---2---4--|
A|---2---0---3---5--|
E|---3--------------|


2nd Verse


2nd CHorus

D|---0---0---0---0--|
B|---0---1---0---3--|
G|---0---0---0---0--| 2X
D|---0---2---2---4--|
A|---2---0---3---5--|
E|---3--------------|

D|---0---0---0---0--|
B|---1---0---0---3--|
G|---0---0---0---0--| 2x
D|---2---0---2---4--|
A|---0---2---3---5--|
E|------------------|

Bridge

D|---0-----0----------|--0---0--|
B|---0-xxx-0-xxx-7--5-|--0---0--|
G|---0-xxx-0-xxx-0--0-|--0---0--|
D|---0-xxx-8-xxx-0--0-|--2---1--|
A|---7-xxx-6-xxx-5--3-|--3---3--|
E|--------------------|---------|

Then Repeat The ChOrus 2 Times...
            
Tabs too difficult? Try these video lessons and learn fast.




comments powered by Disqus
↑ Back to top | Tablatures and chords are parodies/interpretations of the original songs. You may use it for private study, scholarship, research or language learning purposes only