» » »

Sweeping From Heaven Tabs (ver.1)

Artists:  A B C D E F G H I J K L M N O P Q R S T U V W X Y Z # 

Sweeping From Heaven Tabs (ver.1)

Jerryc
Rating:
5/5 (5 votes)

Hard to play? Try these video lessons and learn fast.
                (Intro)
----------5h9p5---12p9------9------|----------------5h9p5---12p9------9-|
--------5-------5------10-----10---|--------------5-------5------10-----|
------6-------------------9------9-|------------6-------------------9---|
----7------------------------------|11--------7-------------------------|
--7--------------------------------|---12---7---------------------------|
5----------------------------------|------5-----------------------------|

---------------------5h10p5---13p10----|---10-----------------------5h10p5---13-|
10-----------------6--------6-------10-|------10------------------6--------6----|
---9-------------7---------------------|10-------10-------------7---------------|
-----11--------7-----------------------|------------12--------7-----------------|
--------12-5-7-------------------------|---------------12-5-7-------------------|
---------------------------------------|----------------------------------------|

10-------10-----------------------3h7p3-|--10p7-----7----------------------7-|
---10-------10------------------3-------|3------8-----8------------------8---|
------10-------10-------------4---------|---------7-----7--------------7-----|
------------------12--------5-----------|-----------------9----------9-------|
---------------------12---5-------------|-------------------10----10---------|
------------------------3---------------|----------------------10------------|

10p7---15p10-------19p15-------20p15----------|---------15p12-------------------8--------|
-----8-------12----------15----------17-------|------17-------13------------------8------|
----------------12----------16----------17----|---17-------------12----------12-----9----|
-------------------------------------------17-|15-------------------14----14----------10-|
----------------------------------------------|------------------------15----------------|
----------------------------------------------|------------------------------------------|

---|-------------|
---|-------------|
---|---9---------|
---|10---10------|
10-|--------10---|
---|-----------8-|
            
Hard to play? Try these video lessons and learn fast. | Correct




comments powered by Disqus
↑ Back to top | Tablatures and chords are parodies/interpretations of the original songs. You may use it for private study, scholarship, research or language learning purposes only