>
 >
No More Distance Intro

No More Distance Intro Guitar Tabs

Jerryc - No More Distance Intro chords, tabs, tablatures, lyrics

Guitar lessons | Add/correct | Request | Top 50 tabs Artists:  A B C D E F G H I J K L M N O P Q R S T U V W X Y Z 0-9

No More Distance Intro Guitar Tabs – Jerryc

CD, Sheet music, Poster

Do you like No More Distance Intro? Share with your friends now
Tabs
                              No More Distance

Music by Jerry C


This  is the solo guitar part of No More Distance. I did the first 45 bars or so today 
hit some of the more difficult parts of the song, but I thought I'd upload what's here so 
I think its fairly accurate, so enjoy! (Universal tab legend below tab)

      E   E    E   E   E    E   E    E      E   E    E   E   E  E   E    E
E||-------------------------------------|-----------------------------------|
B||------12S--14------15S--14-----------|-----------------------------------|
G||----------------------------16S--14--|------16S--14------13-----11S--13--|
D||-------------------------------------|--12-----------11------9-----------|
A||--12---------------------------------|-----------------------------------|
E||---------------16--------------------|-----------------------------------|


   E   E    E   E   E    E   E    E      E   E    E   E   E   E   Q
-------------------------------------|----------------------------------|
------12S--14------15S--14-----------|----------------------------------|
----------------------------16S--14--|------16S--14---------------------|
-------------------------------------|--12-----------11S--9-------------|
--12---------------------------------|-----------------------12S--7~----|
---------------16--------------------|----------------------------------|


   E   E    E   E   E    E   E    E      E   E    E   E   E  E   E    E
-------------------------------------|-----------------------------------|
------12S--14------15S--14-----------|-----------------------------------|
----------------------------16S--14--|------16S--14------13-----11S--13--|
-------------------------------------|--12-----------11------9-----------|
--12---------------------------------|-----------------------------------|
---------------16--------------------|-----------------------------------|


   E   E    E   E   E    E   E    E      E   E    E  E    E   E   Q
-------------------------------------|----------------------------------|
------12S--14------15S--14-----------|----------------------------------|
----------------------------16S--14--|------16S--14----------13--14~----|
-------------------------------------|--12-----------9S--11-------------|
--12---------------------------------|----------------------------------|
---------------16--------------------|----------------------------------|


   E   E    E   E   E    E   E    E      E   E    E   E   E  E   E    E
-------------------16s--12-----------|-----------------------------------|
------12s--14------------------------|-----------------------------------|
----------------------------11S--13--|------16S--14------13-----11S--13--|
-------------------------------------|--12-----------11------9-----------|
--12-----------16--------------------|-----------------------------------|
-------------------------------------|-----------------------------------|


   E   E    E   E   E    E   E    E      E    E   E   E   E   E   Q
-------------------19s--17------------|--------------------------------|
------12s--17---------------17s--14~--|--L~----------------------------|
--------------------------------------|----------16--------------------|
--------------------------------------|------12------11s--9------------|
--12-----------16---------------------|----------------------12s--7----|
--------------------------------------|--------------------------------|


   E   E    E   E   E    E   E    E      E   E    E   E   E  E   E    E
-------------------16s--12-----------|-----------------------------------|
------12s--14------------------------|-----------------------------------|
----------------------------11S--13--|------16S--14------13-----11S--13--|
-------------------------------------|--12-----------11------9-----------|
--12-----------16--------------------|-----------------------------------|
-------------------------------------|-----------------------------------|


   E   E    E   E   E    E   E    E       E   E   E  E    E   E   Q
-------------------19s--17------------|---------------------------------|
------12s--17---------------17s--14~--|---L-----------------------------|
--------------------------------------|----------16----------13--14~----|
--------------------------------------|------12------9S--11-------------|
--12-----------16---------------------|---------------------------------|
--------------------------------------|---------------------------------|


   E   E    E   E      E   S   S   E   E
-------------------17g15--14h-15p-14------|
------15s--17-------------------------15--|
---------------14-------------------------|
--12--------------------------------------|
------------------------------------------|
------------------------------------------|


                NH
   E      E     E   E   S   S   S   S  E   E
-------------<>19-----------------------------|
------15g19-----------------------------------|
--13------------------------------------------|
-------------------14--12h-14p-12p-11---------|
--------------------------------------14--11--|
----------------------------------------------|


                             PM
   E   E    E   E   E    E   E  E
------------------------------------|
------12s--14------15s--14------9~--|
------------------------------------|
------------------------------------|
--12------------------------12------|
---------------16-------------------|


                    pinch Harmonic kind of
     PM       PM PM
  E  E  Q     E  E  Q                          E  E   E  E  E    E  E  E
-------------------------------------------|-------------------------------|
--L--7--9b----9--7-------------------------|------6S--7-----9s--10---------|
--------------------9~---------------------|------------------------9--L\--|
-------------------------------------------|------------------------9--L\--|
-------------------------------------------|--/5---------6----------7--L\--|
-------------------------------------------|------------------------0--L\--|


  Q    E  E  E  E  E  E     E  E  E  E  Q    E  E      Q    E  E  E  E  E  E
-------------------------|-------------------------|--------------------------|
-------------------------|-------------------------|--------------------------|
-------------------------|--------------7----7--7--|--/9----9--9--9--9--9--9--|
--2----2--2--2--2--2--2--|--2--2--2--2--7----7--7--|--/9----9--9--9--9--9--9--|
--2----2--2--2--2--2--2--|--2--2--2--2--5----5--5--|--/7----7--7--7--7--7--7--|
--0----0--0--0--0--0--0--|--0--0--0--0-------------|--------------------------|


    E   E    E   E    Q     Q        H          Q       E    E
---------------------------19----|--17~-------------------------|
-------12s--14---L--/17----------|-------------14br----12s--10--|
---------------------------------|------------------------------|
---------------------------------|------------------------------|
--/12----------------------------|------------------------------|
----------------16---------------|------------------------------|


   E    E   E   E  H            H.           Q
-----------------------------|--------------------|
--12s--14--10s--5--L~--------|--L-----------------|
-----------------------------|--------------------|
-----------------------------|--------------------|
-----------------------------|--------------------|
-----------------------------|--------------------|


                                                bend w/ 2nd finger
    E   E    E   E    Q     Q        H          Q                  E    E
---------------------------19----|--17~------------------------------------|
-------12s--14---L--/17----------|-------------15br---------------14s--12--|
---------------------------------|-----------------------------------------|
---------------------------------|-----------------------------------------|
--/12----------------------------|-----------------------------------------|
----------------16---------------|-----------------------------------------|


                                      1         3
   Q    E      E   H           E      E    E    E    H
----------------------------|----------------------------------|
--12-------10g14~--L--------|--L-------------------------------|
--------9-------------------|----------------------------------|
----------------------------|----------------------------------|
----------------------------|-----14g16s--14s--16S--12~--------|
----------------------------|----------------------------------|


    E   E    E   E    Q     Q        H          Q       E    E
---------------------------19----|--17~-------------------------|
-------12s--14---L--/17----------|-------------14br----12s--10--|
---------------------------------|------------------------------|
---------------------------------|------------------------------|
--/12----------------------------|------------------------------|
----------------16---------------|------------------------------|


   E    E   E   E  H            H.           Q
-----------------------------|--------------------|
--12s--14--10s--5--L~--------|--L-----------------|
-----------------------------|--------------------|
-----------------------------|--------------------|
-----------------------------|--------------------|
-----------------------------|--------------------|


   E   E   E   E  E   Q.           Q.      Q     Q.
-------------------------------|----------12------------|
------12--14---------14br------|--12------12----12------|
--11----------11---------------|------------------------|
-------------------------------|------------------------|
-------------------------------|------------------------|
-------------------------------|------------------------|


  E    E      E   Q.      Q        E    E   E    E  H
-------------------------------|---0----L---0----L------------|
--9h--10--10g12--10~------L----|--14s--10--17s--10--L~--------|
-------------------------------|------------------------------|
-------------------------------|------------------------------|
-------------------------------|------------------------------|
-------------------------------|------------------------------|


    E   E    E   E    Q     Q        H          Q       E    E
---------------------------19----|--17~-------------------------|
-------12s--14---L--/17----------|-------------14br----12s--10--|
---------------------------------|------------------------------|
---------------------------------|------------------------------|
--/12----------------------------|------------------------------|
----------------16---------------|------------------------------|


   E    E   E   E  Q.      E      S S S S S S S S E    E  Q
-------------------------------|--------------------------------|-----||
--12s--14--10s--5--L~----------|--------------------------------|-----||
---------------------------2S--|--6-6-7-7-8-8-9-9-9s--11--------|-----||
-------------------------------|--------------------------9~----|-----||
-------------------------------|--------------------------------|-----||
-------------------------------|--------------------------------|-----||


Duration Legend
---------------
W - whole
H - half
Q - quarter
E - 8th
S - 16th
T - 32nd
X - 64th
. - note dotted
|-n-|  - n-tuplets


Tablature Legend
----------------
L - tied note
x - dead note
g - grace note
(n) - ghost note
> - accentuded note
NH - natural harmonic
AH - artificial harmonic
TH - tapped harmonic
SH - semi harmonic
PH - pitch harmonic
h - hammer on
p - pull off
b - bend
br - bendRelease
pb - preBend
pbr - preBendRelease
brb - bendReleaseBend
\n/ - tremolo bar dip
\n - tremolo bar dive
-/n - tremolo bar Release up
/n\ - tremolo bar inverted dip
/n - tremolo bar return
-\n - tremolo bar Release down
S - shift slide
s - legato slide
/ -  slide into from below or out of upwards
\ -  slide into from above or out of downwards
~ - vibrato
W - wide vibrato
tr - trill
TP - tremolo picking
T - tapping
S - slap
P - pop
< - fade in
^ - brush up
v - brush down





Comments


Popular Jerryc tabs & chords
Canon Rock Bass Tabs
Canon Rock 2 Bass Tabs
Im Alright Bass Tabs
Canon Rock Chords
Canon Rock Tabs
Im Alright 2 Tabs
No More Distance Tabs
Sweeping From Heaven Intro Tabs
Wedding In The Dream 1 Tabs
Canon Rock Ukulele


Song lyrics



↑ Back to top | Tablatures and chords are parodies/interpretations of the original songs. You may use it for private study, scholarship, research or language learning purposes only
© 2014 AZChords.com Contact us | Privacy policy | DMCA | Add/correct tabs | Request tabs | Top 50 tabs