» » »

Canon Rock Bass tabs (ver.3)

Artists:  A B C D E F G H I J K L M N O P Q R S T U V W X Y Z # 

Canon Rock Bass tabs (ver.3)

Jerryc
Rating:
0/5 (0 votes)

Hard to play? Try these video lessons and learn fast.
                                         JerryC - Canon


Bass doesn't play in the intro.
In the beginning there is some organ stuff
and then guitar starts playing high notes
bass starts when drums go in and the ''rock'' part starts.
It's quite easy to catch.

1st.Part
G|--------------|--------------|--------------|--------------|--------------|
D|--------------|--------------|--------------|--------------|--------------|
A|-5------------|--------------|-2------------|--------------|-5------------|
E|--------------|-5------------|--------------|-2--0-2-3-----|--------------|

 |--------------|--------------| :This goes just once.
 |--------------|--------------|
 |--------------|--------------|
 |-3------------|-5--5--5--5---|

2nd.Part
G|-----------|-----------|-----------|-----------|-----------|-----------|
D|-----------|-----------|-----------|-----------|-----------|-----------|
A|-5-555555--|-----------|-2-222222--|-----------|-----------|-5-555555--|
E|-----------|-5-555555--|-----------|-2-220022--|-3-333333--|-----------|

 |-----------|-----------|
 |-----------|-----------| 
 |-----------|-----------| Repeat:  X3
 |-3-333333--|-5-555555--|

3rd.Part
G|-----------|-----------|-----------|-----------|-----------|-----------|
D|-----------|-----------|-----------|-----------|-----------|-----------|
A|-5-5-555---|-----------|-2-2-222---|-----------|-----------|-5-5-555---|
E|-----------|-5-5-555---|-----------|-222-0-0-2-|-3-3-333---|-----------|

 |-----------|-----------|
 |-----------|-----------|
 |-----------|-----------|  Repeat: X2
 |-3-3-333---|-5-5-555---|


 Then comes a small interlude after that you play 2nd.Part 5 times.
 Then starts:

4rth.Part 
G|--------|--------|--------|-----------|--------|--------|--------|
D|--------|--------|--------|-----------|--------|--------|--------|
A|-5-55---|--------|-2-22---|-----------|--------|-5-55---|--------|
E|--------|-5-55---|--------|-222-0-0-22|-3-33---|--------|-3-33---|
 
 |--------|
 |--------| Repeat: X3
 |--------|
 |-5-55---|

 Then go 2nd.Part 2 times.
 Then go 1st.Part once.
 Then go 4rth.Part 3 times.

 WERY GOOD SONG!!!! If you have a band and a bad ass guitarist...
 --------------->>>>>>>PLAY CANON ROCK!
            
Hard to play? Try these video lessons and learn fast. | Correct




comments powered by Disqus
↑ Back to top | Tablatures and chords are parodies/interpretations of the original songs. You may use it for private study, scholarship, research or language learning purposes only