» » »

Jerrod Niemann, Lover Lover Tabs (ver.3)

Artists:  A B C D E F G H I J K L M N O P Q R S T U V W X Y Z # 

Lover Lover Tabs (ver.3)

Jerrod Niemann Tabs
 Rating:
4/5 (4 votes)
Lover Lover lessons Tabs too difficult? Try these video lessons and learn fast
                Simple 2 chord I-IV song in G major with a groovy rhythm.


First 2 verses:

E ------------------------------------------|
B ------------------------------------------|
G ------------------------------------------|
D ----(0)-0h2-0------------5--5h6-5-5-6-5---|
A ---------------2-0-------3--3---3-3-3-3---|
E -------------------3----------------------|

Or if you prefer an open voicing:

E -----------------------------------------|
B -------------------------1--1----1-1-1---|
G -------------------------0--0h2--0-2-0---|
D ----(0)-0h2-0------------2--2----2-2-2---|
A ---------------2-0-------3--3----3-3-3---|
E -------------------3---------------------|


Chorus is just G and C repeating, keep working the pinky
i.e:

E --------------------------------------|
B --------------------------------------|
G --------------------------------------|
D ---------------------5--5h6-5-5-6-5---|
A --5--5h6-5-5-6-5-----3--3---3-3-3-3---|
E --3--3---3-3-3-3----------------------|

Or if you prefer an open voicing:

E ----------------------------------|
B ------------------1--1----1-1-1---|
G -0--0----0-0-0----0--0h2--0-2-0---|
D -0--0h2--0-2-0----2--2----2-2-2---|
A -2--2----2-2-2----3--3----3-3-3---|
E -3--3----3-3-3--------------------|
            
Submit corrections

comments powered by Disqus
↑ Back to top | Jerrod Niemann Tabs for Lover Lover. Lyrics for acoustic guitar and electric guitar. Tablatures and chords are parodies/interpretations of the original songs. You may use it for private study, scholarship, research or language learning purposes only