» » »

Jerrod Niemann, Bakersfield Tabs (ver.1)

Artists:  A B C D E F G H I J K L M N O P Q R S T U V W X Y Z # 

Bakersfield Tabs (ver.1)

Jerrod Niemann Tabs
Rating:
5/5 (1 vote)
Bakersfield lessons Tabs too difficult? Try these video lessons and learn fast
                1st Part of Intro:

Capo 2

E-------------------------3--3--3---------------3-|
B--1---1--1---1--1--1--1--3--3--3--0h1--1--1--1-3-|
G--0h2-2--0---0--0--0--0--0--0--0--0h2--2--2--2---|
D--3---3--0h2-2--2--2--2--0--0--0--0h2--2--2--2---|
A--0---0--3---3--3--3--3--3--3--3--0----0--0--0---|
E---------0---0--0--0--0--2--2--2-----------------|

2nd Part of Intro:

E-------------------------3--3--3----------------------------|
B--1---1--1---1--1--1--1--3--3--3--0h1--1--1--1--------------|
G--0h2-2--0---0--0--0--0--0--0--0--0h2--2--2--2----------0h2-|
D--3---3--0h2-2--2--2--2--0--0--0--0h2--2--2--2------0h2-----|
A--0---0--3---3--3--3--3--3--3--3--0----0--0--0--------------|
E---------0---0--0--0--0--2--2--2----------------------------|

Repeat

Chorus:

--------------- F -----------------------------------------C-----------

But I called her Bakersfield, and it would always make her smile, Don't

-----F------------C------------------Am7--------G------F------------C----

know where she is today, But she was mine for a while. Every time I drive

----------------------B7-Am7-G------------------G-----C----

through the California hills, I always think of Bakersfield.

Go To The 1st and 2nd Intros and Repeat.
            
Submit corrections

comments powered by Disqus
↑ Back to top | Jerrod Niemann Tabs for Bakersfield. Lyrics for acoustic guitar and electric guitar. Tablatures and chords are parodies/interpretations of the original songs. You may use it for private study, scholarship, research or language learning purposes only