» » »

Jerks, Welcome To The Vale Tabs (ver.1)

Artists:  A B C D E F G H I J K L M N O P Q R S T U V W X Y Z # 

Welcome To The Vale Tabs (ver.1)

Jerks Tabs
Rating:
0/5 (0 votes)
Welcome To The Vale lessons Tabs too difficult? Try these video lessons and learn fast
                The Jerks - Welcome To The Vale

Intro
E----------------------------------------------------|
B----------------------------------------------------|
G-------------------------------9--------------------|
D-11--------11--------11--------9------Ring-Out------|
A-11--------11--------11--------7--------------------|
E-9---------9---------9------------------------------|


E----------------------------------------------------|
B----------------------------------------------------|
G---------------------11111111----9-9-9999--9-9-9999-|
D-11-11-11111111-9-9--11111111-X3-9-9-9999--9-9-9999-|
A-11-11-11111111-9-9--9-9-9-9-----7-7-7777--7-7-7777-|
E-9--9--9-9-9-9--7-7---------------------------------|

Verse
E----------------------------------------------------|
B-6--6--6--6--6--6--6----4--4--4--4--4---------------|
G-6--6--6--6--6--6--6----4--4--4--4--4----5--5-------|
D-6--6--6--6--6--6--6----4--4--4--4--4----4--4---X4--|
A-4--4--4--4--4--4--4----2--2--2--2--2----4--4-------|
E-----------------------------------------2--2-------|

E-------------------------------------------------0--|
B-------------------------------------------------0--|
G-6-6-6666----6-6-6666----4-4-4444----------------0--|
D-6-6-6666----6-6-6666----4-4-4444----4-4-4444----0--|
A-4-4-4444----4-4-4444----2-2-2222----4-4-4444----0--|
E-------------------------------------2-2-2222----0--|

Chorus
E----------------------------------------------------|
B----------------------------------------------------|
G-66666666----------------44444444-------------------|
D-66666666----66666666----44444444----4--4--4-4--4---|
A-44444444----66666666----22222222----4--4--4-4--4---|
E-------------44444444----------------2--2--2-2--2---|

Bridge (Number One)
E----------------------------------------------------|
B----------------------------------------------------|
G----------------------------------------------------|
D-6--6--6-6-6-6-6-6----9--9--9---------------X2------|
A---------------------------------9--9---------------|
E----------------------------------------------------|

Bridge (Number Two) Add On
E----------------------------------------------------|
B----------------------------------------------------|
G------------------------4----4----------------------|
D-6----6--------2--------4----4--------4------X2-----|
A-6----6--------2--------2----2--------4-------------|
E-4----4--------0----------------------2-------------|
            
Submit corrections

comments powered by Disqus
↑ Back to top | Jerks Tabs for Welcome To The Vale. Lyrics for acoustic guitar and electric guitar. Tablatures and chords are parodies/interpretations of the original songs. You may use it for private study, scholarship, research or language learning purposes only