» » »

Jerks, Know Your Enemy Tabs (ver.1)

Artists:  A B C D E F G H I J K L M N O P Q R S T U V W X Y Z # 

Know Your Enemy Tabs (ver.1)

Jerks Tabs
Rating:
0/5 (0 votes)
Hard to play? Try these video lessons and learn fast.
                The Jerks - Know Your Enemy

Intro/Verse
E------------------------------------------------|
B------------------------------------------------|
G----------9-9-X-9-------------------9-9-X-9-----|
D-9-XX-7-X-9-9-X-9-------XX-9-XX-7-X-9-9-X-9-----|
A-9-XX-7-X-7-7-X-7-------XX-9-XX-7-X-7-7-X-7-----|
E-7-XX-5-X---------------XX-7-XX-5-X-------------|

Pre Chorus
E------------------------------------------------|
B------------------------------------------------|
G------------------------------------------------|
D-4-4-4-4-4-4-444--------7-77-7-7-7-7-777--------|
A-4-4-4-4-4-4-444--------7-77-7-7-7-7-777--------|
E-2-2-2-2-2-2-222--------5-55-5-5-5-5-555--------|

E------------------------------------------------|
B------------------------------------------------|
G------------------------------------------------|
D-4-44-4-4-4-4-444--------7-77-7-7--7--9---------|
A-4-44-4-4-4-4-444--------7-77-7-7--7--9---------|
E-2-22-2-2-2-2-222--------5-55-5-5--5--7---------|

Chorus
E-7-7--5-5-------7-7--7-7--5-5-------7-----------|
B-7-7--5-5--9-9--7-7--7-7--5-5--9-9--7-----------|
G-8-8--6-6--9-9--8-8--8-8--6-6--9-9--8--RING-OUT-|
D-9-9--7-7--9-9--9-9--9-9--7-7--9-9--9-----------|
A------------------------------------------------|
E------------------------------------------------|

Bridge
E------------------------------------------------|
B------------------------------------------------|
G------------------------------------------------|
D-9-9-999--7-77-7-77------4-4-444--2-22-2-22-----|
A-9-9-999--7-77-7-77--X3--4-4-444--2-22-2-22-----|
E-7-7-777--5-55-5-55------2-2-222--0-00-0-00-----|

E------------------------------------------------|
B------------------------------------------------|
G-6-6-666-6-66-6-66--7-7-777-7-77-7-77-----------|
D-6-6-666-6-66-6-66--7-7-777-7-77-7-77-----------|
A-4-4-444-4-44-4-44--5-5-555-5-55-5-55-----------|
E------------------------------------------------|

E------------------------------------------------|
B------------------------------------------------|
G-9--9--9--------9--9--9-------------------------|
D-9--9--9--------9--9--9-------------------------|
A-7--7--7--------7--7--7-------------------------|
E------------------------------------------------|

Last Chorus
E-7-7--5-5-------7-7--7-7--5-5-------7-----------|
B-7-7--5-5--9-9--7-7--7-7--5-5--9-9--7-----------|
G-8-8--6-6--9-9--8-8--8-8--6-6--9-9--8-----------|
D-9-9--7-7--9-9--9-9--9-9--7-7--9-9--9-----------|
A------------------------------------------------|
E------------------------------------------------|

E------7----------7------------------------------|
B-9-9--7-----9-9--7------------------------------|
G-9-9--8-----9-9--8----RING-OUT------------------|
D-9-9--9-----9-9--9------------------------------|
A------------------------------------------------|
E------------------------------------------------|
            

comments powered by Disqus
↑ Back to top | Jerks Tabs for Know Your Enemy. Lyrics for acoustic guitar and electric guitar. Tablatures and chords are parodies/interpretations of the original songs. You may use it for private study, scholarship, research or language learning purposes only