» » »

Gutter Homes And Gardens Tabs (ver.1)

Artists:  A B C D E F G H I J K L M N O P Q R S T U V W X Y Z # 

Gutter Homes And Gardens Tabs (ver.1)

Jerks
Rating:
0/5 (0 votes)

Hard to play? Try these video lessons and learn fast.
                The Jerks - Gutter Homes And Gardens

Intro
E-------------------------------------|
B-------------------------------------|
G-66------------6-6-6666--9-99--------|
D-66--7--9--X3------------9-99--9-99--|
A-44--7--9------4-4-4444--7-77--9-99--|
E-----5--7----------------------7-77--|

E-------------------------------------|
B-------------------------------------|
G-6-6-6666----------------------------|
D-6-6-6666--7-77--9-99------X4--------|
A-4-4-4444--7-77--9-99----------------|
E-----------5-55--7-77----------------|

Verse
E---------Palm-Muted------------------|
B-------------------------------------|
G-66-6--66-6--------------------------|
D-66-6--66-6--77-7--99-9----X4--------|
A-44-4--44-4--77-7--99-9--------------|
E-------------55-5--77-7--------------|

Chorus
E-------------------------------------|
B-------------------------------------|
G-66666666----------------------------|
D-66666666--7777--9999------X4--------|
A-44444444--7777--9999----------------|
E-----------5555--7777----------------|

Solo
E------------------------------------|
B------------------------------------|
G-6-6-6666--9-99--------66-666-6-----|
D-----------------9-99---------------|
A------------------------------------|
E------------------------------------|

E------------------------------------|
B------------------------------------|
G---6----------6-6-6666--9-99--------|
D-7---7-9----------------------9-99--|
A------------------------------------|
E------------------------------------|

E-------------------9-9-9999--12-1212|
B------------------------------------|
G-66-666-666-666-6-------------------|
D------------------------------------|
A------------------------------------|
E------------------------------------|

E----------99-999-9-----9-------12---|
B-12-1212------------10---10-12------|
G------------------------------------|
D------------------------------------|
A------------------------------------|
E------------------------------------|

E-9-9-9999--12-1212------------------|
B--------------------12-1212---------|
G------------------------------------|
D------------------------------------|
A------------------------------------|
E------------------------------------|

E-12-P-11-P-9--X4--7-----9-----------|
B---------------------9--------------|
G------------------------------------|
D------------------------------------|
A------------------------------------|
E------------------------------------|

2ND Chorus
E------------------------------------|
B------------------------------------|
G-88888888---------------------------|
D-88888888--9999--11111111----X4-----|
A-66666666--9999--11111111-----------|
E-----------7777--9-9-9-9------------|
            
Hard to play? Try these video lessons and learn fast. | Correct




comments powered by Disqus
↑ Back to top | Tablatures and chords are parodies/interpretations of the original songs. You may use it for private study, scholarship, research or language learning purposes only