» » »

Jerks, Gun Control Tabs (ver.1)

Artists:  A B C D E F G H I J K L M N O P Q R S T U V W X Y Z # 

Gun Control Tabs (ver.1)

Jerks Tabs
 Rating:
4/5 (4 votes)
Gun Control lessons Tabs too difficult? Try these video lessons and learn fast
1
                The Jerks - Gun Control

Intro
E------------------------------------|
B------------------------------------|
G--------6------88888888-------------|
D-666666-6--X3--88888888-------------|
A-666666-4------66666666-------------|
E-444444-----------------------------|

Verse
E------------------------------------|
B------------------------------------|
G-------------------6--8-------------|
D-6666666666666666--6--8-------------|
A-6666666666666666--4--6-------------|
E-4444444444444444-------------------|

Chorus
E------------------------------------|
B------------------------------------|
G-6-6-6666--8-8-8888-----------------|
D-6-6-6666--8-8-8888--6-6-6666-------|
A-4-4-4444--6-6-6666--6-6-6666-------|
E---------------------4-4-4444-------|

E------------------------------------|
B------------------------------------|
G-10-10-10101010-6-6-6666--8-8-8888--|
D-10-10-10101010-6-6-6666--8-8-8888--|
A-8--8--8-8-8-8--4-4-4444--6-6-6666--|
E------------------------------------|

E------------------------------------|
B------------------------------------|
G--------6---------6-----------------|
D-666666-6--666666-6-----------------|
A-666666-4--666666-4-----------------|
E-444444----444444-------------------|

Bridge
E------------------------------------|
B------------------------------------|
G------------------------------------|
D-6----6----6----6-------------------|
A-6----6----6----6-------------------|
E-4----4----4----4-------------------|

Outro
E------------------------------------|
B------------------------------------|
G--------6------88888888-------------|
D-666666-6--X3--88888888----6--------|
A-666666-4------66666666----6--------|
E-444444--------------------4--------|
            
Submit corrections

comments powered by Disqus
↑ Back to top | Jerks Tabs for Gun Control. Lyrics for acoustic guitar and electric guitar. 1 Tablatures and chords are parodies/interpretations of the original songs. You may use it for private study, scholarship, research or language learning purposes only