» » »

Jerks, Cops On Hindley Tabs (ver.1)

Artists:  A B C D E F G H I J K L M N O P Q R S T U V W X Y Z # 

Cops On Hindley Tabs (ver.1)

Jerks Tabs
 Rating:
4/5 (4 votes)
Cops On Hindley lessons Tabs too difficult? Try these video lessons and learn fast
                The Jerks - Cops On Hindley

Intro/Verse
E-----------------------------------------|
B-----------------------------------------|
G-9-9-9-9-----------11-11-11-11-----------|
D-9-9-9-9--9-9-9-9--11-11-11-11--7-7-7-7--|
A-7-7-7-7--9-9-9-9--9--9--9--9---7-7-7-7--|
E----------7-7-7-7---------------5-5-5-5--|

E-----------------------------------------|
B-----------------------------------------|
G-9-9-9-9---------------------------------|
D-9-9-9-9--9-9-9-9--7-7-7-7--7-7-7-7------|
A-7-7-7-7--9-9-9-9--7-7-7-7--7-7-7-7------|
E----------7-7-7-7--5-5-5-5--5-5-5-5------|

Chorus
E-----------------------------------------|
B-----------------------------------------|
G------------------9-9-9-9-9-9-9-9--------|
D-9-9-9-9-9-9-9-9--9-9-9-9-9-9-9-9--X3----|
A-9-9-9-9-9-9-9-9--7-7-7-7-7-7-7-7--------|
E-7-7-7-7-7-7-7-7-------------------------|

E-----------------------------------------|
B-----------------------------------------|
G-----------------------------------------|
D-7-7-7-7-7-7-7-7--9-9-9-9-9-9-9-9--------|
A-7-7-7-7-7-7-7-7--9-9-9-9-9-9-9-9--------|
E-5-5-5-5-5-5-5-5--7-7-7-7-7-7-7-7--------|

Solo
E-----------------------------------------|
B-----------------------------------------|
G--------9-------------------9--11-9-11-9-|
D-7-H-9-----7-H-9-----7-H-9---------------|
A------------------7----------------------|
E-----------------------------------------|

Outro
E-----------------------------------------|
B-----------------------------------------|
G-9----9----9----9----9----9----9----9----|
D-9----9----9----9----9----9----9----9----|
A-7----7----7----7----7----7----7----7----|
E-----------------------------------------|
            
Submit corrections

comments powered by Disqus
↑ Back to top | Jerks Tabs for Cops On Hindley. Lyrics for acoustic guitar and electric guitar. Tablatures and chords are parodies/interpretations of the original songs. You may use it for private study, scholarship, research or language learning purposes only