» » »

Jerks, Combat Knife Tabs (ver.1)

Artists:  A B C D E F G H I J K L M N O P Q R S T U V W X Y Z # 

Combat Knife Tabs (ver.1)

Jerks Tabs
Rating:
0/5 (0 votes)
Hard to play? Try these video lessons and learn fast.
                The Jerks - Combat Knife

Intro/Verse
E-------------------------------------------------|
B------------7-77-7-77------9-99-9-99--7-77-7-77--|
G-6-66-6-66--7-77-7-77------9-99-9-99--7-77-7-77--|
D-7-77-7-77--7-77-7-77--X3--9-99-9-99--7-77-7-77--|
A-7-77-7-77--5-55-5-55------7-77-7-77--5-55-5-55--|
E-5-55-5-55---------------------------------------|

Chorus
E-------------------------------------------------|
B----------7-7-77777------99999999--7-777777------|
G-6-6-6-6--7-7-77777------99999999--7-777777------|
D-7-7-7-7--7-7-77777--X3--99999999--7-777777------|
A-7-7-7-7--5-5-55555------77777777--5-555555------|
E-5-5-5-5-----------------------------------------|

Bridge
E-------------------------------------------------|
B------------7-77-7-77------9---------------------|
G-6-66-6-66--7-77-7-77------9---------------------|
D-7-77-7-77--7-77-7-77--X3--9---------------------|
A-7-77-7-77--5-55-5-55------7---------------------|
E-5-55-5-55---------------------------------------|

Outro
E---------------------------------5---------------|
B---------------------------------5---------------|
G-6-6-6-6-666666666666------------6---------------|
D-7-7-7-7-777777777777----Ring----7---------------|
A-7-7-7-7-777777777777------------7---------------|
E-5-5-5-5-555555555555------------5---------------|
            

comments powered by Disqus
↑ Back to top | Jerks Tabs for Combat Knife. Lyrics for acoustic guitar and electric guitar. Tablatures and chords are parodies/interpretations of the original songs. You may use it for private study, scholarship, research or language learning purposes only