» » »

Sula Chords (ver.1)

Artists:  A B C D E F G H I J K L M N O P Q R S T U V W X Y Z # 

Sula Chords (ver.1)

Jeremy Fisher
Rating:
4/5 (1 vote)

Hard to play? Try these video lessons and learn fast.
                Capo 3

Riff 1:

e|-----------------------------|
B|-----------------------------|
G|-----------------------------|
D|-------------5~--------------|
A|--------5h7------------------|
E|---3s7-----------------------|

or

e|-----------------------------|
B|-----------------------------|
G|-------------0---------------|
D|--------0h2------------------|
A|---0h2-----------------------|
E|-----------------------------|


Intro:
G   C   G   D   G   (Riff)

Verse:
G
All the songs to sing been sung
C
All the things to do been done
G         A             D  (slide down the G-string)
You got nowhere left to go
G
All the dreams to dream been dreamed
C
All the things to see been seen
G                A                  D
Guess you better find your way back home

Chorus:
G
Dear ol' Sula
C
I knew I'd lose ya
G            D           G    Riff
I ain't been waitin' for you

Verse 2 (same chords):
All the things to feel been felt
All the pretty roses smelled
Sit back these days and get left behind
All the things to touch been touched
Baby grown, you've learned so much
Pick a grape and turn it into wine

CHORUS

Verse 3:
All the songs to sing been sung
Can't get the honey if you don't get stung
Sting a bee, sing a bird a song
All the dreams to dream been dreamt
In my bones you never left
Ain't it bittersweet like home-sweet-home

CHORUS
            
Hard to play? Try these video lessons and learn fast. | Correct




comments powered by Disqus
↑ Back to top | Tablatures and chords are parodies/interpretations of the original songs. You may use it for private study, scholarship, research or language learning purposes only