» » »

Left Behind Chords (ver.1)

Artists:  A B C D E F G H I J K L M N O P Q R S T U V W X Y Z # 

Left Behind Chords (ver.1)

Jeremy Fisher
Rating:
0/5 (0 votes)

Hard to play? Try these video lessons and learn fast.
                -------------------------------------------------------------------------------
-------------------------------------------------------------------------------


This is my first offering. Its not much but it'll give ya a place to start from. I'd 
it if anyone could post corrections if they have em!


Tuning: Standard

CAPO ON 4th FRET


Finger picked (listen to the song to figure it out)

There is an intro, which I can't figure out, that's used throughout the song. If anyone 
it please post it!

VERSES

C G Am Am
F G C  C


CHORUS

F G Am C
F G Am Am
F G C-Em-Am
F G C  C


THe chords are played like so:

     C   G   Am  F   Em
e|-------3-------------------------------------------------------------------|
B|---1---1---1---1---1-------------------------------------------------------|
G|-----------2---2-----------------------------------------------------------|
D|---2-------2---3---2-------------------------------------------------------|
A|---3---2-------3---2-------------------------------------------------------|
E|-------3-------1-----------------------------------------------------------|

Notice that the index finger stays on the B-string for the whole song.

If you look it up on You Tube you can see he keeps the same position for the whole 
even playing the low F with his thumb.


This might also be a good way to figure out the intro!

Good luck!!!
            
Hard to play? Try these video lessons and learn fast. | Correct




comments powered by Disqus
↑ Back to top | Tablatures and chords are parodies/interpretations of the original songs. You may use it for private study, scholarship, research or language learning purposes only