» » »

Jeremy Camp, Take My Life Tabs (ver.1)

Artists:  A B C D E F G H I J K L M N O P Q R S T U V W X Y Z # 

Take My Life Tabs (ver.1)

Jeremy Camp Tabs
Rating:
5/5 (12 votes)
Take My Life lessons Tabs too difficult? Try these video lessons and learn fast
                Tuning: Standard-EADGBe
Intro
e|--------------------------------------------------------------------------|
B|--------------------------------------------------------------------------|
G|-5-5-5--555/7-7--777/8-8--888/10-10-10--10\5-5-5--5/8-8-7-7-7\------------|
D|-5-5-5--555/7-7--777/8-8--888/10-10-10--10\5-5-5--5/8-8-7-7-7\6-6-6-6-6~~-|
A|-3-3-3--333/5-5--555/6-6--666/8--8--8---8-\3-3-3--3/6-6-5-5-5\6-6-6-6-6~~-|
E|--------------------------------------------------------------4-4-4-4-4~~-|

Verse - Repeat as needed
e|------------------------------------------------------------|
B|------------------------------------------------------------|
G|-------------------------------------------10---------------|
D|----13-10-13-10-13-10----10-13-10-13-10-13----13-10---------|
A|----------------------13------------------------------------|
E|------------------------------------------------------------|

e|------------------------------------------------------------|
B|------------------------------------------------------------|
G|------------------------------------------------------------|
D|----13-10-13-10-13-10----10-13-10-13-10-13-10---------------|
A|----------------------13----------------------13~~----------|
E|------------------------------------------------------------|

Chorus                                                                     x2
e|---------------------------------------------------------------------------|
B|---------------------------------------------------------------------------|
G|-5-5---3-3---------------------5-5-5-5/8-8-7-7-7/--------------------------|
D|-5-5---3-3---6-6---6-6---8-8---5-5-5-5/8-8-7-7-7/---6-6-666-5-6-5-6--------|
A|-3-3---1-1---6-6---6-6---8-8---3-3-3-3/6-6-5-5-5/---6-6-666-5-6-5-6--------|
E|-------------4-4---4-4---6-6------------------------4-4-444-3-4-3-4--------|

Verse - Repeat as needed
e|------------------------------------------------------------|
B|------------------------------------------------------------|
G|-------------------------------------------10---------------|
D|----13-10-13-10-13-10----10-13-10-13-10-13----13-10---------|
A|----------------------13------------------------------------|
E|------------------------------------------------------------|

e|------------------------------------------------------------|
B|------------------------------------------------------------|
G|------------------------------------------------------------|
D|----13-10-13-10-13-10----10-13-10-13-10-13-10---------------|
A|----------------------13----------------------13~~----------|
E|------------------------------------------------------------|

Bridge -
e|---------------------------|
B|---------------------------|
G|---------------------------|
D|3--3--3--3-5--7~~----------|
A|3--3--3--3-5--7~~----------|
E|1--1--1--1-3--5~~----------|

Verse - Repeat as needed
e|------------------------------------------------------------|
B|------------------------------------------------------------|
G|-------------------------------------------10---------------|
D|----13-10-13-10-13-10----10-13-10-13-10-13----13-10---------|
A|----------------------13------------------------------------|
E|------------------------------------------------------------|

e|------------------------------------------------------------|
B|------------------------------------------------------------|
G|------------------------------------------------------------|
D|----13-10-13-10-13-10----10-13-10-13-10-13-10---------------|
A|----------------------13----------------------13~~----------|
E|------------------------------------------------------------|

Bridge -
e|---------------------------|
B|---------------------------|
G|---------------------------|
D|3--3--3--3-5--7~~----------|
A|3--3--3--3-5--7~~----------|
E|1--1--1--1-3--5~~----------|

Verse - Repeat as needed
e|------------------------------------------------------------|
B|------------------------------------------------------------|
G|-------------------------------------------10---------------|
D|----13-10-13-10-13-10----10-13-10-13-10-13----13-10---------|
A|----------------------13------------------------------------|
E|------------------------------------------------------------|

e|------------------------------------------------------------|
B|------------------------------------------------------------|
G|------------------------------------------------------------|
D|----13-10-13-10-13-10----10-13-10-13-10-13-10---------------|
A|----------------------13----------------------13~~----------|
E|------------------------------------------------------------|

Outro
e|--------------------------------------------------------------------------|
B|--------------------------------------------------------------------------|
G|-5-5-5--555/7-7--777/8-8--888/10-10-10--10\5-5-5--5/8-8-7-7-7\------------|
D|-5-5-5--555/7-7--777/8-8--888/10-10-10--10\5-5-5--5/8-8-7-7-7\6-6-6-6-6~~-|
A|-3-3-3--333/5-5--555/6-6--666/8--8--8---8-\3-3-3--3/6-6-5-5-5\6-6-6-6-6~~-|
E|--------------------------------------------------------------4-4-4-4-4~~-|

e|--------------------------------------------------------------------------|
B|--------------------------------------------------------------------------|
G|-5-5-5--555/7-7--777/8-8--888/10-10-10\5--5-5-5-5~-3--3--3-3/5------------|
D|-5-5-5--555/7-7--777/8-8--888/10-10-10\5--5-5-5-5~-3--3--3-3/5--6-6-6-6-6-|
A|-3-3-3--333/5-5--555/6-6--666/8--8--8-\3--3-3-3-3~-1--1--1-1/3--6-6-6-6-6-|
E|----------------------------------------------------------------4-4-4-4-4-|
            
Submit corrections

comments powered by Disqus
↑ Back to top | Jeremy Camp Tabs for Take My Life. Lyrics for acoustic guitar and electric guitar. Tablatures and chords are parodies/interpretations of the original songs. You may use it for private study, scholarship, research or language learning purposes only