» » »

Jenny Owen Youngs, Drinking Song Tabs (ver.1)

Artists:  A B C D E F G H I J K L M N O P Q R S T U V W X Y Z # 

Drinking Song Tabs (ver.1)

Jenny Owen Youngs Tabs
 Rating:
4/5 (4 votes)
Drinking Song lessons Tabs too difficult? Try these video lessons and learn fast
1
                ------------------------------------------------------------------------------
------------------------------------------------------------------------------


Tuning: Standard: eBGDAE

I tabbed it to the Album Versions order, but added in some bits she plays
on live versions, and if you listen, you'll see bits i didnt tab out, its on the 
"C# minor" (I dont know if thats the right name for it) I think its every second time u play 
intro/pre-verse you play an extra C# minor before continuing


Intro: x4
Verse: x4
Chorus: x4
Pre-verse: x4
Verse: x4
Chorus: x4
Bridge: x4
Pre-verse (Picked): x8
Verse: x4
Outro: x4


  Intro:
   |A        |E          |G#       |C# minor
e|--------0-------------------------------4----------------------------------|
B|------2-----------1-----------4-------5------------------------------------|
G|--------------------2-------5----------------------------------------------|
D|--2-------------2-------6---------6----------------------------------------|
A|----0-------0h2-----------6---------4--------------------------------------|
E|---------------------------------------------------------------------------|

   |A5                |A minor
e|---------------------------------------------------------------------------|
B|--------5--------5---------5-----------------------------------------------|
G|------6--------6---------5-------------------------------------------------|
D|--7--------7---------7-------7---------------------------------------------|
A|----7--------7---------7---------------------------------------------------|
E|---------------------------------------------------------------------------|


  Verse:
    E        F#         A         A
e|--0-0------2-2--------5-5-------5-5----------------------------------------|
B|--0-0------2-2--------5-5-------5-5----------------------------------------|
G|--2-2------3-3--------6-6-------6-6----------------------------------------|
D|--2-2------4-4--------7-7-------7-7----------------------------------------|
A|--1-1------4-4--------7-7-------7-7----------------------------------------|
E|--0-0------2-2--------5-5-------5-5----------------------------------------|

             A          Scratching
e|-----------5-5--------x-x-x-x----------------------------------------------|
B|-----------5-5--------x-x-x-x----------------------------------------------|
G|-----------6-6--------x-x-x-x----------------------------------------------|
D|-----------7-7--------x-x-x-x----------------------------------------------|
A|-----------7-7--------x-x-x-x----------------------------------------------|
E|-----------5-5--------x-x-x-x----------------------------------------------|


  Chorus:
    E        A       G#       F#
e|--0-0------5-5-----4-4------2-2--------------------------------------------|
B|--0-0------5-5-----4-4------2-2--------------------------------------------|
G|--2-2------6-6-----5-5------3-3--------------------------------------------|
D|--2-2------7-7-----6-6------4-4--------------------------------------------|
A|--1-1------7-7-----6-6------4-4--------------------------------------------|
E|--0-0------5-5-----4-4------2-2--------------------------------------------|

    E        A       G#       F#
e|--0-0------5-5-----2-2------2-2--------------------------------------------|
B|--0-0------5-5-----2-2------2-2--------------------------------------------|
G|--2-2------6-6-----3-3------3-3--------------------------------------------|
D|--2-2------7-7-----4-4------4-4--------------------------------------------|
A|--1-1------7-7-----4-4------4-4--------------------------------------------|
E|--0-0------5-5-----2-2----0h2-2--------------------------------------------|

             A        G#
e|-----------2-2------5-5----------------------------------------------------|
B|-----------2-2------5-5----------------------------------------------------|
G|-----------3-3------6-6----------------------------------------------------|
D|-----------4-4------7-7----------------------------------------------------|
A|-----------4-4------7-7----------------------------------------------------|
E|-----------2-2------5-5----------------------------------------------------|


  Pre-verse:
  C# minor   A        E        G#
e|--4-4------0-0------0-0------4-4-------------------------------------------|
B|--5-5------2-2------0-0------4-4-------------------------------------------|
G|--6-6------2-2------2-2------5-5-------------------------------------------|
D|--6-6------2-2------2-2------6-6-------------------------------------------|
A|--4-4------0-0------1-1------6-6-------------------------------------------|
E|-----------0-0------0-0------4-4-------------------------------------------|

             A        A minor
e|-----------5-5------5-5----------------------------------------------------|
B|-----------5-5------5-5----------------------------------------------------|
G|-----------6-6------5-5----------------------------------------------------|
D|-----------7-7------7-7----------------------------------------------------|
A|-----------7-7------7-7----------------------------------------------------|
E|-----------5-5------5-5----------------------------------------------------|


   Pre-verse (Picked):
   |C# minor  |A          |E         |G#
e|--------4------------------------------------------------------------------|
B|------5------------0-----------0---------4---------------------------------|
G|-----------------2---2-------1---------5-----------------------------------|
D|--6----------0h2---------2---------6---------------------------------------|
A|----4----------------------2---------6-------------------------------------|
E|---------------------------------------------------------------------------|


   Bridge / Outro:
             F#       A
e|-----------2-2------5-5------------------------------------------------------|
B|-----------2-2------5-5------------------------------------------------------|
G|-----------3-3------6-6------------------------------------------------------|
D|-----------4-4------7-7------(End song on A)---------------------------------|
A|-----------4-4------7-7------------------------------------------------------|
E|-----------2-2------5-5------------------------------------------------------|
            
Submit corrections

comments powered by Disqus
↑ Back to top | Jenny Owen Youngs Tabs for Drinking Song. Lyrics for acoustic guitar and electric guitar. 1 Tablatures and chords are parodies/interpretations of the original songs. You may use it for private study, scholarship, research or language learning purposes only