» » »

Jeff Wayne, Eve Of The War Tabs (ver.1)

Artists:  A B C D E F G H I J K L M N O P Q R S T U V W X Y Z # 

Eve Of The War Tabs (ver.1)

Jeff Wayne Tabs
 Rating:
2.5/5 (8 votes)
Eve Of The War lessons Tabs too difficult? Try these video lessons and learn fast
1
                (Intro)
Keep all of this muted

E||-------------|-----------------------------|---------------------|
B||-------------|-----------------------------|---------------------|
G||-------------|-----------------------------|---------------------|
D||-------------|-----------------------------|---------------------|
A||-------------|-----------------------------|---------------------|
E||-0-0-0--00---|--0-0-0--00----0-0-0--00-----|---0-0-0--00---------|

E||-----------|-----------------------------|
B||-----------|-----------------------------|
G||-----------|-----------------------------|
D||-----------|-----------------------------|
A||-----------|-----------------------------|
E||--3-4-5-6--|--5-6--5-6--56-5-9-----------| Repeat this 3 Times! 
                                                 (still muted)


E||-----------|-----------------------------|
B||-----------|-----------------------------|
G||-----------|-----------------------------|
D||-----------|-----------------------------|   <-- Bar chord
A||--5-6-7-8--|--7-8--7-8--78-7-11----------|
E||--3-4-5-6--|--5-6--5-6--56-5-9-----------|     Repeat this 3 Times! 
                                                     (still muted)





E||-----------|-----------------------------|
B||-----------|-----------------------------|
G||-----------|-----------------------------|   Then lift of the mute and  
D||-----------|-----------------------------|   rackel it
A||--5-6-7-8--|--7-8--7-8--78-7-11----------|   (sounds best on electric)
E||--3-4-5-6--|--5-6--5-6--56-5-9-----------|   


Thank you and have fun playing
            
Submit corrections

comments powered by Disqus
↑ Back to top | Jeff Wayne Tabs for Eve Of The War. Lyrics for acoustic guitar and electric guitar. 1 Tablatures and chords are parodies/interpretations of the original songs. You may use it for private study, scholarship, research or language learning purposes only