» » »

Jeff Wayne, Eve Of The War Bass tabs (ver.1)

Artists:  A B C D E F G H I J K L M N O P Q R S T U V W X Y Z # 

Eve Of The War Bass tabs (ver.1)

Jeff Wayne Tabs
 Rating:
4/5 (4 votes)
Eve Of The War lessons Tabs too difficult? Try these video lessons and learn fast
1
                
 intro orchestra (only) first time

|------------------------------------|
|------------------------------------|
|--5-5-5----5-5-5----5-5-5----5-5-5--|
|------------------------------------|

|------------------|
|----7-------------|
|--5---5---/5-8-5--|
|------------------|

|------------------------------------|
|------------------------------------|
|--5-5-5----5-5-5---/5-5-5----5-5-5--|
|------------------------------------|

|------------------------------------|
|------------------------------------|
|--3--5--3--5--3-5-3-5-3-5--5/8\7\5--|
|------------------------------------|


|---------------------------------|
|---------------------------------| twice
|--5-5-5--5-8-7----5-5-5--5-----3-|
|---------------------------5-6---|


|-------------------------------|
|----7--------------------------|
|--5---5--5-8-7-----5-8-5-----3-|
|-------------------------5-6---|

|-------------------------------------------|
|-------------------------------------------|
|-5-5-5--5-8-7----5-5-5-----3--5-5-5--5-8-7-|
|-----------------------5-6-----------------|

|--------------------------------|
|--------------------------------|
|-5-5-5--3--5--3--5--3-5-3-5-3-5-|
|--------------------------------|

 bass solo with guitar solo

|---------------------------------------|
|-------------5-----------------7-------|
|-3-3-5-7-3-----7\3-5-5-7-8-5-----8-5-3-| twice
|-----------3-----------------5---------|


 the chances of anything...... whistle chorus 1

|---------------------------------------------------------------|
|------------------5-3-----------------------------------5-3----|
|-3-3---1-3-3-5-5-5-----5\1-1-1-1-1-1-/-5-5-5-----3-5-5-5-----5-|
|-----3---------------------------------------5-6---------------|

|-----------------------------3-----|
|------------------5-3-------3-3----|
|-3-3---1-3-3-5-5-5----5\1-1----1/3-|
|-----3-----------------------------|



|-------------------------------------------------|
|-------------------5-3---------------------5-3---|
|-5-5-5-----3-5-5-5-----5-5-5-5-----3-5-5-5-----5-| twice (fast)
|-------5-6---------------------5-6---------------|

|------------------------------|
|----7-------------------5-3---|
|--5---5--5-----3--5-5-5-----3-| (fast)
|-----------5-6----------------|

|------------------------------|
|------------------------5-3---|
|--5-8-5--5-----3--5-5-5-----3-| (fast)
|-----------5-6----------------|

|-------------------------------------------------------------------------|
|-------------------5-3---------------------5-3---------------------5-3---|
|-5-5-5-----3-5-5-5-----5-5-5-5-----3-5-5-5-----5-5-5-5-----3-5-5-5-----5-| (fast)
|-------5-6---------------------5-6---------------------5-6---------------|

|--------------------------------|
|--------------------------------|
|-5-5-5-3---3--3--5--3-5-3-5-3-5-|
|-------5-6----------------------|

|---------------------------------------|
|-------------5-----------------7-------|
|-3-3-5-7-3-----7\3-5-5-7-8-5-----8-5-3-| twice 
|-----------3-----------------5---------|

 the chances of anything...... whistle chorus 2

|---------------------------------------------------------------|
|------------------5-3-----------------------------------5-3----|
|-3-3---1-3-3-5-5-5-----5\1-1-1-1-1-1-/-5-5-5-----3-5-5-5-----5-|
|-----3---------------------------------------5-6---------------|

|-----------------------------3-----|
|------------------5-3-------3-3----|
|-3-3---1-3-3-5-5-5----5\1-1----1/3-|
|-----3-----------------------------|

 (4.11)

|------------------------------------|
|------------------------------------|
|--5-5-5----5-5-5----5-5-5----5-5-5--|
|------------------------------------|

|-------------------------|
|-------------------------|
|-3--5--3--5--3-5-3-5-3-5-|
|-------------------------|

 BreakDown 

|----10----12----10-|
|-12----12----12----|
|-------------------| twice
|-------------------|

 richard talks after first time

|---------------------------------------|
|-------------5-----------------7-------|
|-3-3-5-7-3-----7\3-5-5-7-8-5-----8-5-3-| four times
|-----------3-----------------5---------|

 the chances of anything...... whistle chorus 3

|---------------------------------------------------------------|
|------------------5-3-----------------------------------5-3----|
|-3-3---1-3-3-5-5-5-----5\1-1-1-1-1-1-/-5-5-5-----3-5-5-5-----5-|
|-----3---------------------------------------5-6---------------|

|-----------------------------3-----|
|------------------5-3-------3-3----|
|-3-3---1-3-3-5-5-5----5\1-1----1/3-|
|-----3-----------------------------|

 Orchestra (lightning effect)

|------------------------------------|
|------------------------------------|
|--5-5-5----5-5-5----5-5-5----5-5-5--|
|------------------------------------|

 Richard Talking

|------------------------------|
|----7-------------------------|
|--5---5-------3-/5-8-5-----3--|
|----------5-6----------5-6----|

|---------------------------------|
|---------------------------------|
|--5-5-5--5-8-7----5-5-5--5-----3-|
|---------------------------5-6---|

|-------------------------------------------------|
|-------------------------------------------------|
|--5-5-5--5-8-7----5-5-5--3--5--3--5--3-5-3-5-3-5-|
|-------------------------------------------------|

 the chances of anything...... Sung chorus 3

|---------------------------------------------------------------|
|------------------5-3-----------------------------------5-3----|
|-3-3---1-3-3-5-5-5-----5\1-1-1-1-1-1-/-5-5-5-----3-5-5-5-----5-|
|-----3---------------------------------------5-6---------------|

|-----------------------------3-----|
|------------------5-3-------3-3----|
|-3-3---1-3-3-5-5-5----5\1-1----1/3-|
|-----3-----------------------------|

 Richard (missle

|-------------------------------------------------|
|-------------------5-3---------------------5-3---|
|-5-5-5-----3-5-5-5-----5-5-5-5-----3-5-5-5-----5-| twice (fast)
|-------5-6---------------------5-6---------------|

|------------------------------|
|----7-------------------5-3---|
|--5---5--5-----3--5-5-5-----3-| (fast)
|-----------5-6----------------|

|------------------------------|
|------------------------5-3---|
|--5-8-5--5-----3--5-5-5-----3-| (fast)
|-----------5-6----------------|

(fast) (some veriations here)
|-------------------------------------------------------------------------|
|-------------------5-3-----------------------5-3---------------------5-3-|
|-5-5-5-----3-5-5-5-----5-5-5-5-------3-5-5-5-----5-5-5-5-----3-5-5-5----5| 
|-------5-6---------------------3-5-6---------------------5-6-------------|

|-------------------------|
|-------------------------|
|-3--5--3--5--3-5-3-5-3-5-|
|-------------------------|

 the chances of anything...... Sung chorus 4

|---------------------------------------------------------------|
|------------------5-3-----------------------------------5-3----|
|-3-3---1-3-3-5-5-5-----5\1-1-1-1-1-1-/-5-5-5-----3-5-5-5-----5-|
|-----3---------------------------------------5-6---------------|

|-----------------------------3-----|
|------------------5-3-------3-3----|
|-3-3---1-3-3-5-5-5----5\1-1----1/3-|
|-----3-----------------------------|

|-------------------------|
|-------------------------|
|-3--5--3--5--3-5-3-5-3-5-|
|-------------------------|

 the chances of anything...... Sung chorus 5

|---------------------------------------------------------------|
|------------------5-3-----------------------------------5-3----|
|-3-3---1-3-3-5-5-5-----5\1-1-1-1-1-1-/-5-5-5-----3-5-5-5-----5-|
|-----3---------------------------------------5-6---------------|

|-----------------------------3-----|
|------------------5-3-------3-3----|
|-3-3---1-3-3-5-5-5----5\1-1----1/3-|
|-----3-----------------------------|

|------------------------------------|
|------------------------------------|
|--5-5-5----5-5-5----5-5-5----5-5-5--| end 
|------------------------------------|

 (heart beat)

|--------|
|-2-Mute-|
|-2------| do this to make the heart beat sound heavy palm mute it and rest 
|--------| your fingers over them frets
            
Submit corrections

comments powered by Disqus
↑ Back to top | Jeff Wayne Bass for Eve Of The War. Lyrics for acoustic guitar and electric guitar. 1 Tablatures and chords are parodies/interpretations of the original songs. You may use it for private study, scholarship, research or language learning purposes only