» » »

Jeff Buckley, Your Flesh Is So Nice Tabs (ver.1)

Artists:  A B C D E F G H I J K L M N O P Q R S T U V W X Y Z # 

Your Flesh Is So Nice Tabs (ver.1)

Jeff Buckley Tabs
 Rating:
4/5 (4 votes)
Your Flesh Is So Nice lessons Tabs too difficult? Try these video lessons and learn fast
                I tabbed this song out myself, and though it was quite easy, if you wish
i can feel all special about myself.  Thanks.


MAIN RIFF:
----------

e|----------------------|
B|----------------------|
G|----7-6-4-9-9-11-11---|
D|--7-7-6-4-9-9-11-11---|
A|--7-5-4-2-7-7--9--9---|
E|--5-------------------|



PRE-CHORUS:
-----------

e|---------------------|
B|---------------------|
G|----7-6-4------------|
D|--7-7-6-4-2-2--4-4---|
A|--7-5-4-2-2-2--4-4---|
E|--5-------0-0--2-2---|



CHORUS:
-------

e|----------------------------------------------|
B|----------------------------------------------|
G|---------7--5--2--0---7--5--2--0---7--5-------|
D|--7--5---7--5--2--0---7--5--2--0---7--5-------|
A|--7--5---5--3--0--0---5--3--0--0---5--3-------|
E|--5--3----------------------------------------|



INTERLUDE:
----------

e|-----0------------------------------|
B|-----0------------------------------|
G|--7--1------------------------------|
D|--7--2-----7--5h7----7--5h7b8---etc-|
A|--5--2-----0--0-0----0--0-0---------|
E|-----0------------------------------|



---------------------------------------------
---------------------------------------------
            
Submit corrections

comments powered by Disqus
↑ Back to top | Jeff Buckley Tabs for Your Flesh Is So Nice. Lyrics for acoustic guitar and electric guitar. Tablatures and chords are parodies/interpretations of the original songs. You may use it for private study, scholarship, research or language learning purposes only