>
 >
What Will You Say?

What Will You Say? Guitar Tabs

Jeff Buckley - What Will You Say? chords, tabs, tablatures, lyrics

Guitar lessons | Add/correct | Request | Top 50 tabs Artists:  A B C D E F G H I J K L M N O P Q R S T U V W X Y Z 0-9

What Will You Say? Guitar Tabs – Jeff Buckley

CD, Sheet music, Poster

Do you like What Will You Say?? Share with your friends now
Tabs
Throughout the whole song, use reverb on the electric guitar.  I transcribed this 
song from the DVD "Live In Chicago" and the "J-Files".  I tabbed the version played
in Australia in the Phonecian Club in Sydney.  It was played on Triple J after Jeff
died.  This is ALL my own work so at least notify me before you steal it and claim 
credit for it.  Thanks!


INTRO: - Distortion.  Reverb.
------

  Rhythm fig.1
D|--------------------------------------------------------------------------|
B|--0-----1-----3-----5-----6-----5h6p5\3--\1-1-----0-----1-----3-----5-----|
G|--0-----0-----0-----0-----0-----0-----0-----0-----0-----0-----0-----0-----|
D|--0-----0-----0-----0-----0-----0-----0-----0-----0-----0-----0-----0-----|
G|--0-----0-----0-----0-----0-----0-----0-----0-----0-----0-----0-----0-----|
D|--------------------------------------------------------------------------|

D|--------------------------3--3--3--3--3--3--3--3--3--3--3--3--3--3--3--3--|
B|--6-----5h6p5\3--\1-1-----0--0--0--1--0--0--0--0--0--0--0--0--0--0--0--0--|
G|--0-----0-----0-----0-----0--0--0--0--2--2--2--2--2--2--2--2--2--2--2--2--|
D|--0-----0-----0-----0-----0--0--0--0--0--0--0--0--0--0--0--0--0--0--0--0--|
G|--0-----0-----0-----0-----x--x--x--x--x--x--x--x--x--x--x--x--x--x--x--x--|
D|--------------------------3--3--3--3--3--3--3--3--3--3--3--3--3--3--3--3--|

D|--0--0--0--0--2--2--2--2--2--2--2--2--2--2--2--2--2--2--2--2--2--2--2--2--|
B|--0--0--0--0--1--1--1--1--1--1--1--1--1--1--1--1--1--1--1--1--1--1--1--1--|
G|--2--2--2--0--0--0--0--0--0--0--0--0--0--0--0--0--0--0--0--0--0--0--0--0--|
D|--2--2--2--2--2--2--2--2--2--2--2--2--2--2--2--2--2--2--2--2--2--2--2--2--|
G|--x--x--x--x--x--x--x--x--x--x--x--x--x--x--x--x--x--x--x--x--x--x--x--x--|
D|--2--2--2--2--2--2--2--2--2--2--2--2--2--2--2--2--2--2--2--2--2--2--2--2--|

D|--2--2--2--2--2------------|
B|--1--1--1--1--1------------|
G|--0--0--0--0--0-*4\\\\-----|
D|--2--2--2--2--2--0---------|	*played in intro only
G|--x--x--x--x--x--4\\\\-----|
D|--2--2--2--2--2------------|

 End Rhythm fig.1

D|-----------------------------------3-----2-----0--|
B|--------------1-p0--------------------0-----0-----|
G|--------0-----------0-----------0-----------------|
D|-----0-----0-----------0-----0--------------------|
G|--0-----------------------0-----------------------|
D|--------------------------------------------------|

D|-----3--------2-----------0--------------------------2-----0-----2-------|
B|--------0--------0-----------0--------3-p1-----------0-----0-----0-------|
G|--------------------0-----------0-----------0--------0-----0-----0-------|
D|-----------------------0-----------0-----------0-------------------------|
G|--------------------------------------------------0----------------------|
D|--3--------3--------------------------------------2----------------------|

D|--------------------------|
B|--------------------------|
G|-----------------^--^----.|
D|-----2--2--2--2--3--5----.|
G|-----0--0--0--0--0--0-----|
D|-----2--2--2--2--3--5-----|

D|-----3--------2-----------0--------------------------2-----0-----2-------|
B|--------0--------0-----------0--------3-p1-----------0-----0-----0-------|
G|--------------------0-----------0-----------0--------0-----0-----0-------|
D|-----------------------0-----------0-----------0-------------------------|
G|--------------------------------------------------0----------------------|
D|--3--------3--------------------------------------2----------------------|

D|--------------------------------------|
B|--------------------------------------|
G|-----0h2/4-4-4-4/7-7-7-10\9-9\--4-----|
D|-----0-----0-0-0---0-0--0---0---0-----|
G|-----0h2/4-4-4-4/7-7-7-10\9-9\--4-----|
D|-----x-----x-x-x---x-x--x---x---x-----|
									  2nd time one 

guitar
									  plays this
D|--------------------------------------------------|  |--------------^-----|
B|--------------------------------------------------|  |--------------0-----|
G|--4--4--4--4--4--4--4--4--4--4--4--4--4--4--4--4--|  |--------------0-----|
D|--0--0--0--0--0--0--0--0--0--0--0--0--0--0--0--0--|  |--------------0-----|
G|--4--4--4--4--4--4--4--4--4--4--4--4--4--4--4--4--|  |-----------^--0-----|
D|--------------------------------------------------|  |-----------3--------|



VERSE 1:
--------

  Rhythm fig.2
D|--------------------------------------------------------------------------|
B|--0--0--0--0--0--0--0--0--0--0--0--0--0-----------0--0--0--0--0--0--0--0--|
G|--4--4--4--4--4--4--4--4--4--4--4--4--4/-5--5/-7--7--7--7--7--7--7--7--7--|
D|--0--0--0--0--0--0--0--0--0--0--0--0--0-----0-----0--0--0--0--0--0--0--0--|
G|--4--4--4--4--4--4--4--4--4--4--4--4--4/-5--5/-7--7--7--7--7--7--7--7--7--|
D|--------------------------------------------------------------------------|
		its been  such a ....		    I was ....

D|--------------------------------------------------------------------------|
B|--0--0--0--0--0-----------0--0--0--0--0--0--0--0--0--0--0--0--0--0--0--0--|
G|--7--7--7--7--7/-9--9/10-10-10-10-10-10-10-10-10-10-10-10-10-10-10-10-10--|
D|--0--0--0--0--0-----0-----0--0--0--0--0--0--0--0--0--0--0--0--0--0--0--0--|
G|--7--7--7--7--7/-9--9-10-10-10-10-10-10-10-10-10-10-10-10-10-10-10-10-10--|
D|--------------------------------------------------------------------------|
    child       then.			    What will ....you
									 one guitar plays 
									 this at the end 

of
									 the last bar
D|--------------------------------------------------| D|-------------|
B|--0--0--0--0--0--0--0--0--0--0--0--0--0--0--0--0--| B|-------------|
G|--9--9--9--9--9--9--9--9--9--9--9--9--9--9--9--9--| G|--9/10\9-9\--|
D|--0--0--0--0--0--0--0--0--0--0--0--0--0--0--0--0--| D|--x------x---|
G|--9--9--9--9--9--9--9--9--9--9--9--9--9--9--9--9--| G|--9/10\9-9\--|
D|--------------------------------------------------| D|-------------|
			   see my face?
						End Rhythm fig.2

w/rhythm fig.2
Time feels like it's flown ...

w/half of rhythm fig.2
Well it's funny ....

D|--0--0--0--0--0--0--0--0--0--0--0--0--0--0--0--0--0--0--0--0--0--0--0--0--|
B|-10-10-10-10-10-10-10-10-10-10-10-10-10-10-10-10--8--8--8--8--8--8--8--8--|
G|-10-10-10-10-10-10-10-10-10-10-10-10-10-10-10-10--9--9--9--9--9--9--9--9--|
D|--0--0--0--0--0--0--0--0--0--0--0--0--0--0--0--0--0--0--0--0--0--0--0--0--|
G|-10-10-10-10-10-10-10-10-10-10-10-10-10-10-10-10--9--9--9--9--9--9--9--9--|
D|--------------------------------------------------------------------------|
		    What will you say		When ....

D|--0--0--0--0--0--0--0--0--|
B|--8--8--8--8--8--8--8--8--|
G|--9--9--9--9--9--9--9--9--|
D|--0--0--0--0--0--0--0--0--|
G|--9--9--9--9--9--9--9--9--|
D|--------------------------|
			    My



CHORUS:
-------

w/rhythm fig.1
face
w/rhythm fig.1
La la la ....



VERSE 2:
--------

  Rhythm fig.3
D|--------------------------------------------------------------------------|
B|--0--------0--------0-----------0--0--0--0--------0--------0--------0-----|
G|--4--------4--------4-----------4--4--4--4--------4--------4--------4-----|
D|--0--------0--------0-----------0--0--0--0--------0--------0--------0-----|
G|--4--------4--------4-----------4--4--4--4--------4--------4--------4-----|
D|--------------------------------------------------------------------------|
	 Father dear,		    the world's ....

D|--------------------------------------------------------------------------|
B|--------0--0--0--0-------10-------10-------10----------10-10-10-10--------|
G|--------4--4--4--4-------10-------10-------10----------10-10-10-10--------|
D|--------0--0--0--0--------0--------0--------0-----------0--0--0--0--------|
G|--------4--4--4--4-------10-------10-------10----------10-10-10-10--------|
D|--------------------------------------------------------------------------|
    cares about love anymore		    What .....you

D|--------------------------------------------------|
B|--8--------8--------8-----8--8--8--8--------------|
G|--9--------9--------9-----9--9--9--9--------------|
D|--0--------0--------0-----0--0--0--0--------------|
G|--9--------9--------9-----9--9--9--9--------------|
D|--------------------------------------------------|
			 see my face?

w/rhythm fig.3
Father are you ....

w/rhythm fig.3			D--play-instead of----------
My heart,.			B--12--------------0-------
can't take ....			G--12--------------4-------
what will you say, ......	D---0--------------0-------
				G--12--------------4-------
				D--------------------------


CHORUS:
-------

w/rhythm fig.1
My face
w/rhythm fig.1
la la la .....

Play this as you enter the bridge.
D|-------------------------|
B|--------0----------------|
G|--------0----------------|
D|----2-3-3/5----7-9/10----|
G|----x-x-x------x-x-------|
D|----2-3-3/5----7-9/10----|



BRIDGE:
-------

D|--------------------------------------------------------------------------|
B|--------------------------------------------------------------0-----------|
G|--9--------7--------3-----------------5--3--5-----------------0-----------|
D|--x--------x--------x-----------------x--x--x-----------------2-----------|
G|--9--------7--------3-----------------5--3--5-----------------x-----------|
D|--------------------------------------------------------------2-----------|
		    I can 	    feel your   time 			    crawling

D|--------------------------------------------------------------------------|
B|--------------------------------------------------------------------------|
G|--------------------------------------------------------------------------|
D|-----------4-----5-----7--8--8--8--8--8--8--8--8--7--7--7--7--7--7--7--7--|
G|-----------x-----x-----x--x--x--x--x--x--x--x--x--x--x--x--x--x--x--x--x--|
D|-----------4-----5-----7--8--8--8--8--8--8--8--8--7--7--7--7--7--7--7--7--|
				    to                a	    slow

D|--------------------------------------------------|
B|--------------0-----------------0--------0-----0--|
G|--------------0--------9-\7--0--9-\7--0--9-\7--0--|
D|-----3-/5-----5--------x-----0--x-----0--x-----0--|
G|-----x--------x--------9-\7--0--9-\7--0--9-\7--0--|
D|-----3-/5-----5--------x--------x--------x--------|



---------------------------------------------
---------------------------------------------





Comments


Popular Jeff Buckley tabs & chords
Last Goodbye Bass Tabs
All Flowers In Time Chords
All Flowes In Time Bend Towards The Sun Chords
Boy With The Thorn In His Side Live Chords
Grace 2 Chords
Last Goodbye 1 Tabs
Lover You Shouldve Come Over Tabs
Satisfied Mind Tabs
So Real 4 Tabs
Jewel Box Ukulele


Song lyrics



↑ Back to top | Tablatures and chords are parodies/interpretations of the original songs. You may use it for private study, scholarship, research or language learning purposes only
© 2014 AZChords.com Contact us | Privacy policy | DMCA | Add/correct tabs | Request tabs | Top 50 tabs