>
 >
Sky Is A Landfill

Sky Is A Landfill Guitar Tabs

Jeff Buckley - Sky Is A Landfill chords, tabs, tablatures, lyrics

Guitar lessons | Add/correct | Request | Top 50 tabs Artists:  A B C D E F G H I J K L M N O P Q R S T U V W X Y Z 0-9

Sky Is A Landfill Guitar Tabs – Jeff Buckley

CD, Sheet music, Poster

Do you like Sky Is A Landfill? Share with your friends now
Tabs
WOW!  This ended up being quite a long tab!  I think it was worth
it though, i find it to be very accurate.  I hope this helps you
play the song, if you need any help with anything though email
me.  If you wish to use this tab on a web site or you wish to claim


INTRO:
------

E|--------------------------x--2--0-----0--------0-|
B|--------------------------x--1--0-----0--------0-|
G|-----------------------------------2-----2--0----|
D|-------------------------------------------------|
A|-------------------------------------------------|
D|--0----------------------------------------------|

E|------------------------------------------|
B|--4--4-----4--4--4------------------------|
G|--4--4-----4--4--4--4---------------------|
D|--4--4-----6--6--6--5---------------------|
A|--2--2-----6--6--6--5---------------------|
D|-----------6--6--6--5---------------------|



VERSE:
------

E|--2-2---2-2---------------------2----------2----|
B|--1-1---1-1-------------------------------------|
G|--2-2---2-2------------------0----------0-------|
D|--0-------0---------------2----------2----------|
A|------------------------------------------------|
D|------------------------------------------------|

E|--2-2---2-2------------------------0------------|
B|--1-1---1-1------------------------3------------|
G|--2-2---2-2------------------0-----0------------|
D|--0-------0---------------2--------0------------|
A|------------------------------------------------|
D|------------------------------------------------|

E|--2-2---2-2---------------------2----------2----|
B|--1-1---1-1-------------------------------------|
G|--2-2---2-2------------------0----------0-------|
D|--0-------0---------------2----------2----------|
A|------------------------------------------------|
D|------------------------------------------------|

E|------------------------------------------------|
B|--------------------------------------0-----0-0-|
G|--------------------------------------0-----0-0-|
D|--9--9--9--9--6--6--6--6--5-----5-----------0-0-|
A|--9--9--9--9--6--6--6--6--5-----5---------------|
D|--9--9--9--9--6--6--6--6--5-----5---------------|
   *******PALM MUTE********


CHORUS:
-------

E|--2---------------------------------------------|
B|--3-------------------------------------0--3----|
G|--2-----------------------------0----------0----|
D|--0--------------------------0------------------|
A|--0-----------------------2---------------------|
D|--0---------------------------------------------|

E|------------------------------------------------|
B|--3--------------------------------3------------|
G|--2-----------------------------0-----0---------|
D|--0--------------------------0------------------|
A|--0--------------------0--2-------------2/5-5-5-|
D|--0---------------------------------------------|

E|------------------------------------------------|
B|--3-----------------------0---------------------|
G|--2-----------------------0-------4b5---4-------|
D|--0-----------------0-----5---------------------|
A|--0-----------------------5-------2b3---2-------|
D|--0-----------------------5---------------------|

E|-----------------------------|
B|-----------------------------|
G|------------------7--7/11-11-|
D|--0-----4--------------------|
A|--0--3-----2--2/5-5--5/9--9--|
D|--0--------------------------|



VERSE:
------

E|--2-2---2-2---------------------2----------2----|
B|--1-1---1-1-------------------------------------|
G|--2-2---2-2------------------0----------0-------|
D|--0-------0---------------2----------2----------|
A|------------------------------------------------|
D|------------------------------------------------|

E|--2-2---2-2-------------------------------------|
B|--1-1---1-1---------------3--3-----3------------|
G|--2-2---2-2---------------0--0-----0------------|
D|--0-------0---------------0--0-----0------------|
A|--------------------------2--2-----2------------|
D|------------------------------------------------|

E|--2-2---2-2---------------------2----------2----|
B|--1-1---1-1-------------------------------------|
G|--2-2---2-2------------------0----------0-------|
D|--0-------0---------------2----------2----------|
A|------------------------------------------------|
D|------------------------------------------------|

E|------------------------------------------------------|
B|--------------------------7-----7--7-7-0-0-0--0-0-0-0-|
G|--------------------------0-----0--0-0-0-0-0--0-0-0-0-|
D|--9--9--9--9--6--6--6--6--0-----0--0-0-0-0-0--0-0-0-0-|
A|--9--9--9--9--6--6--6--6------------------------------|
D|--9--9--9--9--6--6--6--6--5-----5--5-5-5-5-5--5-5-5-5-|



CHORUS:
-------

E|--2-----------------------------------5--------------|
B|--3--------------------------------3-----3--3-3--3---|
G|--2-----------------------------0--------------------|
D|--0--------------------------0-----------------------|
A|--0-----------------------2-----------------5-5--5---|
D|--0--------------------------------------------------|

E|--------------5--------0--------------5--------------|
B|--------3--------3-----------------3-----3--3-3--3---|
G|-----2-----2--------------------0--------------------|
D|--0--------------------------0-----------------------|
A|--------------------------2-----------------5-5--5---|
D|-----------------------------------------------------|

E|------------------------------------------------|
B|--3-----------------------0---------------------|
G|--2-----------------------0-------4b5---4-------|
D|--0-----------------0-----5---------------------|
A|--0-----------------------5-------2b3---2-------|
D|--0-----------------------5---------------------|

E|-----------------------------|
B|-----------------------------|
G|------------------7--7/11-11-|
D|--0-----4--------------------|
A|--0--3-----2--2/5-5--5/9--9--|
D|--0--------------------------|



POST-CHORUS:
------------

E|-----2--0-----0--------0-----------------------------|
B|-----1--0-----0--------0-----------------------------|
G|-----------2-----2--0---------------------7--7/11-11-|
D|--------------------------0-----4--------------------|
A|--0-----------------------0--3-----2--2/5-5--5/9--9--|
D|--------------------------0--------------------------|

E|-----2--0-----0--0--0--0-----------------------------|
B|-----1--0-----0--0--0--0-----------------------------|
G|-----------2-----2--0---------------------7--7/11-11-|
D|--------------------------0-----4--------------------|
A|--------------------------0--3-----2--2/5-5--5/9--9--|
D|--0-----------------------0--------------------------|

E|-----2--0-----0--0--0--0--|
B|-----1--0-----0--0--0--0--|
G|-----------2-----2--0-----|
D|--------------------------|
A|--0-----------------------|
D|--------------------------|



BRIDGE:
-------

GUITAR 1
E|----------------------------------|
B|----------------------------------|
G|----------------------------------|
D|--4---5-4-5---4---5-5-4---4---4-5-|
A|--4---5-4-5---2---5-5-2---2---2-5-|
D|----------------------------------|

E|--------------------------|
B|--------------------------|
G|--------------------------|
D|--------------------------|
A|--------------------------|
D|--------------------------|

E|----------------------------------|
B|----------------------------------|
G|----------------------------------| PLAY
D|--4---5-4-5---4---5-5-4---4---4-5-|  x4
A|--4---5-4-5---2---5-5-2---2---2-5-|
D|----------------------------------|


GUITAR 2
E|----------------------------------|
B|----------------------------------|
G|----------------------------------|
D|--4---5-4-5---4---5-5-4---4---4-5-|
A|--4---5-4-5---2---5-5-2---2---2-5-|
D|----------------------------------|

E|-----2--0-----0--------0--|
B|-----1--0-----0--------0--|
G|-----------2-----2--0-----|
D|--------------------------|
A|--0-----------------------|
D|--------------------------|

E|------------------------------------|
B|------------------------------------|
G|--6---6-6-7---7-9---9--11--11br---x-|
D|------------------------------------|
A|------------------------------------|
D|------------------------------------|

E|------------------------------------|
B|--------------------------------10b-|
G|--6---6-6-7---7-9---9--11--11br-----|
D|------------------------------------|
A|------------------------------------|
D|------------------------------------|

E|------------------------------------|
B|------------------------------------|
G|--6---6-6-7---7-9---9--11brbr----7--|
D|------------------------------------|
A|------------------------------------|
D|------------------------------------|

E|------------------------------------|
B|---------------------------------10-|
G|--6---6-6-7---7-9---9--11--11brb----|
D|------------------------------------|
A|------------------------------------|
D|------------------------------------|



INTERLUDE:
----------

E|----------------------------------|
B|----------------------------------|
G|----------------------------------|
D|------4---------------------2-----|
A|--5-------5---4br-1-1-4-1-1---1br-|
D|----------------------------------|

E|----------------------------------|
B|----------------------------------|
G|----------------------------------|
D|----------------------4-----------|
A|--0---0-0-----------5---5-5---4br-|
D|----------0-2-2-0-5---------------|

E|----------------------------------|
B|----------------------------------|
G|----------------------------------|
D|--------------2br-----------------|
A|--1-1-4-----2-----0---0-0---------|
D|--------------------------0-2-2-0-|

E|----------------------------------|
B|----------------------------------|
G|----------------------------------|
D|----------------------------------|
A|----------------------------------|
D|--5-------------------------------|

E|------------------------------------------|
B|--0---0-0---------13-13-13-13-10-10-10-10-|
G|--0---0-0---------11-11-11-11--8--8--8--8-|
D|--0---0-0-8-8-8-8--9--9--9--9--6--6--6--6-|
A|----------8-8-8-8--9--9--9--9--6--6--6--6-|
D|--5---5-5-8-8-8-8--9--9--9--9--6--6--6--6-|

E|----------------------------------|
B|--5-------------------------------|
G|--0-------------------------------|
D|--0-------------------------------|
A|----------------------------------|
D|--5-------------------------------|



VERSE:
------

E|--2-2---2-2---------------------2----------2----|
B|--1-1---1-1-------------------------------------|
G|--2-2---2-2------------------0----------0-------|
D|--0-0---0-0---------------2----------2----------|
A|------------------------------------------------|
D|------------------------------------------------|

E|--2-2---2-2-------------------------------------|
B|--1-1---1-1------------------------3--------x-x-|
G|--2-2---2-2------------------------0--------x-x-|
D|--0-0---0-0------------------------0--------x-x-|
A|------------------------------------------------|
D|-------------------0---0--5--5------------------|

E|--2-2---2-2---------------------2----------2----|
B|--1-1---1-1-------------------------------------|
G|--2-2---2-2------------------0----------0-------|
D|--0-0---0-0---------------2----------2----------|
A|------------------------------------------------|
D|-------------------0---0------------------------|

E|------------------------------------------------|
B|----------------------------------0-0-0-0-0-0-0-|
G|--------------------------0-0-0---0-0-0-0-0-0-0-|
D|--9--9--9--9--6--6--6--6--0-0-0---0-0-0-0-0-0-0-|
A|--9--9--9--9--6--6--6--6------------------------|
D|--9--9--9--9--6--6--6--6--5-5-5---5-5-5-5-5-5-5-|



CHORUS:
-------

E|--2-----------------------------------5--------------|
B|--3--------------------------------3-----3--3-3--3---|
G|--2-----------------------------0--------------------|
D|--0--------------------------0-----------------------|
A|--0-----------------------2-----------------5-5--5---|
D|--0--------------------------------------------------|

E|--------------5--------0--------------5--------------|
B|--------3--------3-----------------3-----3--3-3--3---|
G|-----2-----2--------------------0--------------------|
D|--0--------------------------0-----------------------|
A|--------------------------2-----------------5-5--5---|
D|-----------------------------------------------------|

E|------------------------------------------------|
B|--3-----------------------0---------------------|
G|--2-----------------------0-------4b5---4-------|
D|--0-----------------0-----5---------------------|
A|--0-----------------------5-------2b3---2-------|
D|--0-----------------------5---------------------|

E|-----------------------------|
B|-----------------------------|
G|------------------7--7/11-11-|
D|--0-----4--------------------|
A|--0--3-----2--2/5-5--5/9--9--|
D|--0--------------------------|



POST-CHORUS:
------------

E|-----2--0-----0--------0-----------------------------|
B|-----1--0-----0--------0-----------------------------|
G|-----------2-----2--0---------------------7--7/11-11-|
D|--------------------------0-----4--------------------|
A|--0-----------------------0--3-----2--2/5-5--5/9--9--|
D|--------------------------0--------------------------|

E|-----2--0-----0--0--0--0-----------------------------|
B|-----1--0-----0--0--0--0-----------------------------|
G|-----------2-----2--0---------------------7--7/11-11-|
D|--------------------------0-----4--------------------|
A|--------------------------0--3-----2--2/5-5--5/9--9--|
D|--0-----------------------0--------------------------|

E|-----2--0-----0--0--0--0--|
B|-----1--0-----0--0--0--0--|
G|-----------2-----2--0-----|
D|--------------------------|
A|--0-----------------------|
D|--------------------------|



BRIDGE:
-------

GUITAR 1
E|----------------------------------|
B|----------------------------------|
G|----------------------------------|
D|--4---5-4-5---4---5-5-4---4---4-5-|
A|--4---5-4-5---2---5-5-2---2---2-5-|
D|----------------------------------|

E|--------------------------|
B|--------------------------|
G|--------------------------|
D|--------------------------|
A|--------------------------|
D|--------------------------|

E|----------------------------------|
B|----------------------------------|
G|----------------------------------| PLAY
D|--4---5-4-5---4---5-5-4---4---4-5-|  x4
A|--4---5-4-5---2---5-5-2---2---2-5-|
D|----------------------------------|


GUITAR 2
E|----------------------------------|
B|----------------------------------|
G|----------------------------------|
D|--4---5-4-5---4---5-5-4---4---4-5-|
A|--4---5-4-5---2---5-5-2---2---2-5-|
D|----------------------------------|

E|-----2--0-----0--------0--|
B|-----1--0-----0--------0--|
G|-----------2-----2--0-----|
D|--------------------------|
A|--0-----------------------|
D|--------------------------|

E|------------------------------------|
B|------------------------------------|
G|--6---6-6-7---7-9---9--11--11br---x-|
D|------------------------------------|
A|------------------------------------|
D|------------------------------------|

E|------------------------------------|
B|--------------------------------10b-|
G|--6---6-6-7---7-9---9--11--11br-----|
D|------------------------------------|
A|------------------------------------|
D|------------------------------------|

E|------------------------------------|
B|------------------------------------|
G|--6---6-6-7---7-9---9--11brbr----7--|
D|------------------------------------|
A|------------------------------------|
D|------------------------------------|

E|------------------------------------|
B|---------------------------------10-|
G|--6---6-6-7---7-9---9--11--11brb----|
D|------------------------------------|
A|------------------------------------|
D|------------------------------------|



FINAL SOLO:
-----------

E|-----------------------------------------|
B|--12b14-14-14r12-12-12-12----10h12p10----|
G|--------------------------------------11-|
D|-----------------------------------------|
A|-----------------------------------------|
D|-----------------------------------------|

E|-----------------------------12b---------|
B|-----------------------------------------|
G|--------11-11-------11br-----------------|
D|-----------------------------------------|
A|-----------------------------------------|
D|-----------------------------------------|

E|-----------------------------------------|
B|--------------------------7b----7b-------|
G|--------------------------7b----7b--9-9b-|
D|-----7--9--9--------7--9-----------------|
A|-----------------------------------------|
D|-----------------------------------------|

E|-----------------------------------------|
B|-10-----------------7-----7-----7--------|
G|--------7--9b----------9-----9-----9/11--|
D|-----------------------------------------|
A|-----------------------------------------|
D|-----------------------------------------|

E|-----------------------------------------|
B|--8----8----8----8----8-10---10-12---12--|
G|----11---11---11---11---11---11-11---11--|
D|-----------------------------------------|
A|-----------------------------------------|
D|-----------------------------------------|

E|--9--9--9-10-10-10--------9--9-10-10-10-10-12-12-|
B|-------------------12-12-------------------------|
G|-11-11-11-11-11-11-12-12-11-11-12-12-12-12-12-12-|
D|-------------------------------------------------|
A|-------------------------------------------------|
D|-------------------------------------------------|

E|-12-------12-12-12-14-14-14-14-14-14-15-15-15-15-|
B|-------------------------------------------------|
G|-12-12-12-12-12-12-11-11-11-11-11-11-------------|
D|-------------------------------------------------|
A|-------------------------------------------------|
D|-------------------------------------------------|

E|--15b17---15b17--------------------------|
B|------------------15b17r15-12\-----------|
G|-----------------------------------------|
D|-----------------------------------------|
A|-----------------------------------------|
D|-----------------------------------------|



END:
----

E|----------------------------------|
B|----------------------------------|
G|----------------------------------| PLAY
D|--4---5-4-5---4---5-5-4---4---4-5-|  x4
A|--4---5-4-5---2---5-5-2---2---2-5-|
D|----------------------------------|

E|-----2--0-----0--------0----------|
B|-----1--0-----0--------0----------|
G|-----------2-----2--0-------------|
D|----------------------------------|
A|--0-------------------------------|
D|----------------------------------|





---------------------------------------------
---------------------------------------------





Comments


Popular Jeff Buckley tabs & chords
Lets Bomb The Moonlight Chords
Lover You Shouldve Chords
The Sky Is A Landfill Chords
Eternal Life Tabs
Hallelujah 5 Tabs
Last Goodbye 2 Tabs
Eternal Life Ukulele
I Know We Could Be So Happy Baby Ukulele
Just Like A Woman Ukulele
Lets Bomb The Moonlight Ukulele


Song lyrics



↑ Back to top | Tablatures and chords are parodies/interpretations of the original songs. You may use it for private study, scholarship, research or language learning purposes only
© 2014 AZChords.com Contact us | Privacy policy | DMCA | Add/correct tabs | Request tabs | Top 50 tabs