» » »

Jeff Buckley, Opened Once Tabs (ver.1)

Artists:  A B C D E F G H I J K L M N O P Q R S T U V W X Y Z # 

Opened Once Tabs (ver.1)

Jeff Buckley Tabs
 Rating:
4/5 (4 votes)
Opened Once lessons Tabs too difficult? Try these video lessons and learn fast
1
                This is ALL my own work so at least notify me before you steal it and claim 
credit for it.  Thanks!


FIG.1:
------

E|------------0-0-0-0-0-0------------------------------------------------------------|
B|---------0--0-0-0-0-0-0------------------------------------------------------------|
G|-------9----9-9-9-9-9-9-----------0------------------------------------------------|
D|-----7------7-7-7-7-7-7---------9--------------------------------------------------|
A|---8--------------------------7---------7------5-------7-7-----7------5-------7-7--|
E|----------------------------8---------8---8--7---7--5--5-5---8---8--7---7--5--5-5--|


FIG.2:
------

E|----------0-0-0-0------------0-0-0-0------------0-0-0-0----0--0--0----------|
B|----------0-0-0-0------------0-0-0-0---------0--0-0-0-0----0--0--0----------|
G|-------4--4-4-4-4---------8--8-8-8-8-------9----9-9-9-9----4--2--1----------|
D|-----2----2-2-2-2-------9----9-9-9-9-----7------7-7-7-7----2--2--2--2h4-----|
A|---4------------------7-----------------------------------------------------|
E|----------------------------------------------------------------------------|


FIG.3:
------

E|------------0-0-0-0-0-0-----------0-0-0-------------0--0--0--0----------|
B|---------0--0-0-0-0-0-0-----------0-0-0-------------0--0--0--0----------|
G|-------9----9-9-9-9-9-9--------6--6-6-6---------9---9--9--9--9----------|
D|-----7------7-7-7-7-7-7------7----7-7-7------10----10-10-10-10----------|
A|---8-----------------------5---------------8----------------------------|
E|------------------------------------------------------------------------|


FIG.4:
------

E|----------0-0-0-0------------0-0-0-0------------0-0-0-0--------|
B|----------0-0-0-0------------0-0-0-0-------7----7-7-7-7--------|
G|-------4--4-4-4-4---------8--8-8-8-8---------9--9-9-9-9--------|
D|-----2----2-2-2-2-------9----9-9-9-9-----7------7-7-7-7--------|
A|---4------------------7----------------------------------------|
E|---------------------------------------------------------------|


FIG.5:
------

E|------------------------------------------------------------0-0-0-0----|
B|---------------------------------------------------------0--0-0-0-0----|
G|-------4-----------------------------------------------9----9-9-9-9----|
D|-----2------2------2-------2-2-----2------2----------7------7-7-7-7----|
A|---4------4---4--2---2--0--0-0---4---4--2---2--0---8-------------------|
E|-----------------------------------------------------------------------|



SONG STRUCTURE/LYRICS:
----------------------

fig.1
I once was open and one with a travelling heart, I loved this sweet guy
fig.1
Just like affection rushing in your riverbed, Arise like applause in my head
fig.2
In the half light where we both stand
fig.2
This is the half light, see me as I am
fig.1
Just like the ocean always in love with the moon, it's overflowing now inside you
fig.3
We fly right over the minds of so many in pain, we are the smile of light...
fig.2
In the half light where we both stand
fig.2
In the half light you saw me as I am
fig.2
I am the railroad track abandoned
fig.4
With the sunset forgetting I ever happened
fig.5
That I ever happened



---------------------------------------------
---------------------------------------------
            
Submit corrections

comments powered by Disqus
↑ Back to top | Jeff Buckley Tabs for Opened Once. Lyrics for acoustic guitar and electric guitar. 1 Tablatures and chords are parodies/interpretations of the original songs. You may use it for private study, scholarship, research or language learning purposes only