>
 >
Last Goodbyefrom The Book

Last Goodbyefrom The Book Bass Tabs

Jeff Buckley - Last Goodbyefrom The Book chords, tabs, tablatures, lyrics

Guitar lessons | Add/correct | Request | Top 50 tabs Artists:  A B C D E F G H I J K L M N O P Q R S T U V W X Y Z 0-9

Last Goodbyefrom The Book Bass Tabs – Jeff Buckley

CD, Sheet music, Poster

Do you like Last Goodbyefrom The Book? Share with your friends now
Bass Tabs
instrument:bass
tuning:drop d(gdad)

                     do not attempt to play without listening to the song, otherwise the rythym will confuse you.
                                         intro: 
(00:14)
g-----------------------------------------------------------------------
d-----7---7---7--------10-----------5----5----5-------12-------      x2
a--9----9----9---9/12------12----7----7----7----7/14-----14----   
d-----------------------------------------------------------------------
(00:25)
g----------------------
d------0-------------
a------------------------ x4
d--0-0-----0302303--      
(00:36)
g-------------------------------------------------------------------
d-----7----7----7---------10---------5----5----5-------12-----  x3
a---9----9----9----9/ 12-----12---7----7----7----7/14------14
d-------------------------------------------------------------------
(00:52)
g------------------------
d---11-----12\5------5
a------------------------
d------------------------
         verse 1("this is our last goodbye")
(00:59)
g------------------------------------------------------------------------------------
d--0-----------0------------------------------7-5-0------------------0-2-0-4-5-(5)---
a----------------------------------------------------5-7\0--------------------------
d0-------7\0-0----0-4-7-9---7\2------4-5---5-----------------12\5-------------------
(01:20)
g------------------------------
d------0-------------0
a------------------------------   x2
d---0----0302302-0-0-----
          verse 2
(01:31)("this is our last good grace")
g---------------------------------------------
d-------0--------0-------------------------
a-----------------------------------7--0-5-7-
d--0-0-----7\0-0---4-7-9--7-5-------------
(01:47)("baby its just because...")
g----------------------------------------------------------------
d-----7----7----7----7h9p7---------5----5----5----5/7\5--
a---9---9----9----9----------9---7----7----7----7---------7
d----------------------------------------------------------------
          pre-chorus
(01:53)
g-----------------------------------------
d-------------------------------3-3-3-3--
a-----3x3-----3-2h3p2---3x3---3----------x2
d--00-----0-0---------0-----0------------
        Chorus
(02:04)("kiss me")
g----------------------------------------------------------------
d-----7---7----7-------10---------5----5----5--------12--- x4
a---9---9----9----9/12-----12---7----7----7----7/14-----14
d----------------------------------------------------------------
(02:21)("im the one who made you cry....")
g----------------------
d---11-----12\5------5
a-----------------------
d-----------------------
              Violin part(listen very carefully for timing)
(02:26)
g---------------------------------
d---------0----------------0      
a---------------------------------    x2
d---0-0------0302303--0-0---
(02:36)
g-------------
d------------0
a------0h2---
d---0--------
(02:37)
g-----------------------------------------
d-------0----------0-------------0-      
a-----------0h2p0-----2p0--------   x2  
d--0-0-----------------------0-0---
(02:44)
g--------------------------------------------------
d---------0---------------------0----------------- 
a-------------------------------------020---5-4-2    
d---0-0------0302303--0-0---------------------
               bridge
(02:49)(oooooohiei)
g--------------------------------------------------------------------
d-----------------------5-5-5------------------------2-22-4-44-5\
a----4-5-----0--4-5-----------2---4-5----0---4-5-----------------
d----------------------5----------------------------------------------
(02:59)(aaaaaAAAAAAGHHH)
g--------------------------------------------
d--------------------------------------------
a-----2---4-5---0--4-5---5--4--2--0-2-4-
d--------------------------------------------
(3:05)("did you say,no this cant happen to me")
                         x3                                    
(-------------------------------------(fill 1)                 (fill2)
g-----------------------------------------------------      g-----------
d--------------------------------------5p4 ----             d-----------
a----5-55555--2-2-222--0-0000------------------             a-----------  
d-------------------------------5-5-5---------              d---5-5-5-4
 
( 3:21)("sayin mahaybe."                                                                    
g-----------------------------------------------
d-----------------------------------------------
a---7-77777\-2-222222-0-0000-00-----------------
d---------------------------------5-5-55--------

(3:28)("you didn't know him at all...."
g---------------------
d----------5-4------
a-7--------------5-5/
d--------------------
chorus
(3:32)("didn't know ooo etc..")
g-------------------------------------------------------------------
d-----7----7----7---------10----------5----5----5-------12-----  x2
a---9----9----9----9/ 12-----12---7----7----7----7/14------14
d-------------------------------------------------------------------

outro
(3:44)("well the bells chiming...")
g------------------------------
d------0---------------------0
a------------------------------   x4
d---0----0302302-0-0-----
(3:55)("...on her soft eyes")
g-----------------------------------------
d-------0----------------0-------------0-      
a----------------0h2p0-----2p0--------   x3  
d--0-0----------------------------0-0---

(4:05)(ooooooooowhoeho)
g-----------------------------------------
d-------------------------------3-3-3-3--
a-----3x3-----3-2h3p2---3x3---3----------x2
d--00-----0-0---------0-----0------------

(4:16)("so looooooong")
g--------------------------------------------------
d--0-0-0000-222-4-4-4-44-555-7/2 ~~~ p0
a---------------------------------------------------
d---------------------------------------------------





Comments


Popular Jeff Buckley tabs & chords
Mojo Pin Bass Tabs
All Flowes In Time Bend Towards The Sun Chords
Drown In My Own Tears Chords
Morning Theft Chords
Eternal Life 1 Tabs
Hallelujah 5 Tabs
Last Goodbye 1 Tabs
Satisfied Mind 1 Tabs
Back In Nyc Ukulele
I Know We Could Be So Happy Baby Ukulele


Song lyrics



↑ Back to top | Tablatures and chords are parodies/interpretations of the original songs. You may use it for private study, scholarship, research or language learning purposes only
© 2014 AZChords.com Contact us | Privacy policy | DMCA | Add/correct tabs | Request tabs | Top 50 tabs