» » »

Jeff Buckley, Last Goodbye Tabs (ver.3)

Artists:  A B C D E F G H I J K L M N O P Q R S T U V W X Y Z # 

Last Goodbye Tabs (ver.3)

Jeff Buckley Tabs
 Rating:
4/5 (4 votes)
Last Goodbye lessons Tabs too difficult? Try these video lessons and learn fast
                This is ALL my own work so at least notify me before you steal it and claim 
credit for it.  Thanks!


INTRO PART 1:
-------------

GUITAR 1
e|0-2-3---3---7-5--0-2-3---3---10-\-5--0-2-3---3---7-00000000000000000000|
B|2-2-2-/-5-/-7-7--2-2-2-/-5-/-12-\-7--2-2-2-/-5-/-7-33333333333333333333|
G|2-2-2-/-5-/-7-7--2-2-2-/-5-/-12-\-7--2-2-2-/-5-/-7-xxxxxxxxxxxxxxxxxxxx|
D|---------------------------------------------------22222222222222222222|
A|---------------------------------------------------00000000000000000000|
D|-----------------------------------------------------------------------|

GUITAR 2
e|-----------------0-2-3---3---10-\-5--0-2-3---3---7---------------------|
B|-----------------2-2-2-/-5-/-12-\-7--2-2-2-/-5-/-7-7-\-5-3-/-5---------|
G|-----------------2-2-2-/-5-/-12-\-7--2-2-2-/-5-/-7-6-\-4-2-/-4---------|
D|----------------------------------------------------------------5--7--9|
A|-----------------------------------------------------------------------|
D|----------------------------------------------------------------5--7--9|



INTRO PART 2:
-------------

GUITAR 1           4x                                       3x
e|-3-333-33-22-22---|----------------------------------------|-----------|
B|-3-333-33-33-33--o|---------------------------------------o|-----------|
G|-0-000-00-22-22---|--2--2--2--2/5-55----------------7-77---|-6-----4---|
D|-0-000-00-00-00--o|--2--2--2--2/5-55--2-5-2-5-2-5-2-7-77--o|-7-----5---|
A|------------------|--0--0--0--0-3-33--2-5-2-5-2-5-2-5-55---|-4-----2---|
D|----------(pt. 1)-|-4--4--4--4--------2-5-2-5-2-5-2--------|-----------|

GUITAR 2           4x                                       3x
e|------------------|----------------------------------------|-----------|
B|-8-888-88-77-77--o|---------------------------------------o|-----------|
G|-7-777-77-77-77---|--2--2--2--2/5-55----------------7-77---|-6-----4---|
D|-5-555-55-44-44--o|--2--2--2--2/5-55--2-5-2-5-2-5-2-7-77--o|-7-----5---|
A|------------------|--0--0--0--0-3-33--2-5-2-5-2-5-2-5-55---|-4-----2---|
D|------------------|-4--4--4--4--------2-5-2-5-2-5-2--------|-----------|



VERSE:
------

GUITAR 1 & GUITAR 2                                                    4x
e|--3-333-33-22-22--3-333-33-22-22--2--0------------------------|--------|
B|--3-333-33-33-33--3-333-33-33-33--3--2--5--8-2-23333-22-----8-|-------o|
G|--0-000-00-22-22--0-000-00-22-22--4--2--4--7-2-22222-22--6--7-|--------|
D|--0-000-00-00-00--0-000-00-00-00--4--2--2--5-4-44444-44--7--5-|-------o|
A|----------------------------------2--0--2--5-------------4--5-|--------|
D|----------------------------------------2--5----------------5-|(pt. 1)-|
  "This is our last goodbye..."



VERSE:
------

GUITAR 1 & GUITAR 2
e|--3-333-33-22-22--3-333-33-22-22--2--0-------2-------------------------|
B|--3-333-33-33-33--3-333-33-33-33--3--2--8--5-3-------------------------|
G|--0-000-00-22-22--0-000-00-22-22--4--2--7--4-2-2-2-2-2-22--------------|
D|--0-000-00-00-00--0-000-00-00-00--4--2--5--2-0-2-2-2-2-22-25-25-25-5255|
A|----------------------------------2--0--5--2---0-0-0-0-00-25-25-25-5255|
D|----------------------------------------5--2--4-4-4-4-----25-25-25-3255|
  "Well, this is our last embrace..." 



BREAK:
------

GUITAR 1 & GUITAR 2                
e|----------xx-------------xx--------------------------------------------|
B|------6-6-xx6-66-----6-6-xx11-9-------6-6-xx6-66-----6-6-xx9999999-----|
G|------5-5-xx5-55-----5-5-xx10-8-------5-5-xx5-55-----5-5-xx8888888-----|
D|--0-0-3-3-xx3-33-0-0-3-3-xx8--8---0-0-3-3-xx3-33-0-0-3-3-xx6666666-----|
A|--0-0-3-3-xx3-33-0-0-3-3-xx8--8---0-0-3-3-xx3-33-0-0-3-3-xx6666666-----|
D|--0-0-3-3-xx3-33-0-0-3-3-xx8--8---0-0-3-3-xx3-33-0-0-3-3-xx6666666-----|



BREAK:
------

GUITAR 1                                  3x
e|------------------------------------------|----------------------------|
B|-----------------------------------------o|----------------------------|
G|----2--2--2--2/5-55----------------7-77---|-6------------4-------------|
D|----2--2--2--2/5-55--2-5-2-5-2-5-2-7-77--o|-7------------5-------------|
A|----0--0--0--0-3-33--2-5-2-5-2-5-2-5-55---|-4------------2-------------|
D|---4--4--4--4--------2-5-2-5-2-5-2--------|----------------------------|

GUITAR 2                                1.5x
e|---0-2-3---3---7-5---0-2-3---3---10-\-5---|----------------------------|
B|---2-2-2-/-5-/-7-7---2-2-2-/-5-/-12-\-7--o|-7-\-5-3-/-5----------------|
G|---2-2-2-/-5-/-7-7---2-2-2-/-5-/-12-\-7---|-6-\-4-2-/-4----------------|
D|-----------------------------------------o|--------------5--7--9-------|
A|------------------------------------------|----------------------------|
D|------------------------------------------|--------------5--7--9-------|
  "Kiss me, please kiss me..."



INTERLUDE:
----------

GUITAR 1           8x                                       
e|--3-333-33-22-22---|---2---0------2--0-------------2---0---------------|
B|--3-333-33-33-33--o|---3---2---8--3--2---5-7-8-10--3---2---8-----------|
G|--0-000-00-22-22---|---4---2---7--4--2---4-6-7-9---4---2---7-----------|
D|--0-000-00-00-00--o|---4---2---5--4--2---2-4-5-7---4---2---5-----------|
A|-------------------|---2---0---5--2--0---2-4-5-7---2---0---5-----------|
D|-----------(pt. 1)-|-----------5---------2-4-5-7-----------5-----------|

GUITAR 2           8x                                       
e|-------------------|---10--9---7--10-9-------------10--9---7-----------|
B|--8-888-88-77-77--o|---12--10--8--12-10--5-7-8-10--12--10--8-----------|
G|--7-777-77-77-77---|---11--9---7--11-9---4-6-7-9---11--9---7-----------|
D|--5-555-55-44-44--o|---------------------2-4-5-7-----------------------|
A|-------------------|---------------------2-4-5-7-----------------------|
D|-------------------|---------------------2-4-5-7-----------------------|



VERSE:
------

GUITAR 1
e|-----------------------------------------------------------------------|
B|--------------------------------------5--3-1-3--1111111111--3333333333-|
G|--7--7--7--7--7--7--7--7--7--7--7--7--4--2-0-2--0000000000--2222222222-|
D|--7--7--7--7--7--7--7--7--7--7--7--7--2----2----2222222222-------------|
A|--0--5--7--5--0--5--7--5--0--5--7--5--2--2-3-2--3333333333--2222222222-|
D|--0--5--7--5--0--5--7--5--0--5--7--5--2--------------------------------|

GUITAR 2
e|--10-7--9--7--10-7--9--7--10-7--9--7-----------------------------------|
B|--7--8--10-8--7--8--10-8--7--8--10-8--5--3-1-3--1-----------3----------|
G|--7--7--9--7--7--7--9--7--7--7--9--7--4--2-0-2--0-----------2----------|
D|--------------------------------------2----2----2----------------------|
A|-----------------------------------------2-3-2--3-----------2----------|
D|-----------------------------------------------------------------------|
  "Did you say..."



BREAK:
------

GUITAR 1 & 2                              2x
e|------------------------------------------|
B|-----------------------------------------o|
G|----2--2--2--2/5-55----------------7-77---|
D|----2--2--2--2/5-55--2-5-2-5-2-5-2-7-77--o|
A|----0--0--0--0-3-33--2-5-2-5-2-5-2-5-55---|
D|---4--4--4--4--------2-5-2-5-2-5-2--------|



VERSE:
------

GUITAR 1           2x                                       
e|--3-333-33-22-22---|---------------2--3--5--|
B|--3-333-33-33-33--o|------------1--3--5--7--|
G|--0-000-00-22-22---|---5--4--6--0--2--5--7--|
D|--0-000-00-00-00--o|---5--5--7--2--0--0--0--|
A|-------------------|---3--2--4--3-----------|
D|-----------(pt. 1)-|------------------------|

GUITAR 2           2x                                       
e|-------------------|---8--7--5-----2--3--5--|
B|--8-888-88-77-77--o|---5--x--5--1--3--5--7--|
G|--7-777-77-77-77---|---5--4--6--0--2--5--7--|
D|--5-555-55-44-44--o|---5--5--7--2--0--0--0--|
A|-------------------|------------3-----------|
D|-------------------|------------------------|
  "Well the bells out in the church..."



BREAK:
------

GUITAR 1            
e|----------xx-------------xx----------------------------------|
B|------6-6-xx6-66-----6-6-xx11-9-------6-6-xx6-66-----6-6-----|
G|------5-5-xx5-55-----5-5-xx10-8-------5-5-xx5-55-----5-5-----|
D|--0-0-3-3-xx3-33-0-0-3-3-xx8--8---0-0-3-3-xx3-33-0-0-3-3-----|
A|--0-0-3-3-xx3-33-0-0-3-3-xx8--8---0-0-3-3-xx3-33-0-0-3-3-----|
D|--0-0-3-3-xx3-33-0-0-3-3-xx8--8---0-0-3-3-xx3-33-0-0-3-3-----|

GUITAR 2
e|--x-x-8-8-xx8-88-x-x-8-8-xx8--6---8888888888888888888888-----|
B|--x-x-6-6-xx6-66-x-x-6-6-xx6--4---6666666666666666666666-----|
G|--x-x-5-5-xx5-55-x-x-5-5-xx5--3---5555555555555555555555-----|
D|--x-x-----xx-----x-x-----xx----------------------------------|
A|--x-x-----xx-----x-x-----xx----------------------------------|
D|--x-x-----xx-----x-x-----xx----------------------------------|



END:
----

GUITAR 1            
e|----------------|
B|--3-3-3--3---3--|
G|--2-2-2--2---2--|
D|--0-2-4--2---0--|
A|--0-0-0--0---0--|
D|----------------|

GUITAR 2
e|--2-3-5--3---2--|
B|--3-5-5--5---3--|
G|--2-5-7--5---2--|
D|----------------|
A|----------------|
D|----------------|





---------------------------------------------
---------------------------------------------
            
Submit corrections

comments powered by Disqus
↑ Back to top | Jeff Buckley Tabs for Last Goodbye. Lyrics for acoustic guitar and electric guitar. Tablatures and chords are parodies/interpretations of the original songs. You may use it for private study, scholarship, research or language learning purposes only