» » »

Jeff Buckley, Hallelujah Tabs (ver.8)

Artists:  A B C D E F G H I J K L M N O P Q R S T U V W X Y Z # 

Hallelujah Tabs (ver.8)

Jeff Buckley Tabs
 Rating:
4/5 (4 votes)
Hallelujah lessons Tabs too difficult? Try these video lessons and learn fast
1
                |---------------------------------------------------------------------------|
|-----1------1------1------1-----------1------------------------------------|
|----0-0----2-2----0-0----2-2----2----0-2----0------------------------------|
|---2------2------2------2------3-3--2------0-0-----------------------------|
|--3----2/0----2/3----2/0----2-3---33----2-2---0----------------------------|
|-----------------------------1-----------3---------------------------------|

This is how the first part of the verse goes. The
next part goes like this.

|---------------------------------------------------------------------------|
|-----1-----------1----------------------1----------------------------------|
|----0-0---------2-2----------1-----1---0-2----0----------------------------|
|---2------3--5-2------3--5--2-2---2---2------0-0---------------------------|
|--3----2-3--5-0----2-3--5--2---2-2--32----2-2---2--------------------------|
|--------1--3--------1--3--0-----0----------3-------------------------------|

This is the part that goes, "It goes like this, the fourth the fifth," then we go to the 
chorus, which just switches from F to Am., then F to C and then G, like this.

|---------------------------------------------------------------------------|
|----------------1-----1-----------------1----------------------------------|
|----2-----2----2-2---2-2----2-----2----0-0----0----------------------------|
|---3-3---3-3--2---2-2---2--3-3---3-3--2---2--0-0---------------------------|
|--3---3-3---30-----0------3---3-3---33------2---2--------------------------|
|-1-----1-----------------1-----1-----------3-------------------------------|

That's pretty much the whole song, there is no bridge but on the last chorus you do this 
part multiple times (like 5 or 6 I think.)
|---------------------------------------------------------------------------|
|------------------1-----1--------------------------------------------------|
|------2-----2----2-2---2-2----2-----2--------------------------------------|
|-----3-3---3-3--2---2-2---2--3-3---3-3-------------------------------------|
|----3---3-3---30-----0------3---3-3---3------------------------------------|
|---1-----1-----------------1-----1-----------------------------------------|

Then you end the last time with the C to G progression. Then usually I just end by 
picking the C chord like you normally would 3 times, but without the change to Am.
            
Submit corrections

comments powered by Disqus
↑ Back to top | Jeff Buckley Tabs for Hallelujah. Lyrics for acoustic guitar and electric guitar. 1 Tablatures and chords are parodies/interpretations of the original songs. You may use it for private study, scholarship, research or language learning purposes only