» » »

Calling You Tabs (ver.1)

Artists:  A B C D E F G H I J K L M N O P Q R S T U V W X Y Z # 

Calling You Tabs (ver.1)

Jeff Buckley
Rating:
5/5 (1 vote)

Hard to play? Try these video lessons and learn fast.
                
Intro

C, F, C, F, C, Fm, C, B7, E7

Chorus & Intro   

    Faug      E/D       Em/C#      BbAug/F#               
E---------5---------4---------3----------2-----|         
B-------3---------5---------5----------3-------|
G-----4---------4---------4----------3---------|
D---3---------0--------------------------------|
A-----------------------4----------------------|
e-----------------------------------2----------|

 (*i suggest using 2nd finger for slide up.)

            F#m/Eb          CAug/Ab    Em/C#        BbAug/F# 
E--------------------5--------------4-----------3------2---------|
B-----------------7---------------5-----------5--------3---------|
G--------------6----------------5-----------4----------3---------|
D----------------------------------------------------------------|
A---*2-3-4-5-6-----------0--------------4------------------------|
e-----------------------------4------------------------2---------|


Verse (gotta stretch here)

    Ebm           D              F#m             B5
E-----------0-------------0--------------0---------------0-------------|
B----------------------------------------------------------------------|
G------1-2-----------1-2------------1-2-------------1-2----------------| 
D-----------------0----------------------------------------------------|
A---4--------------------------------------------2---------------------|
e--------------------------------2-------------------------------------|

Structure

.Intro (inc. chorus Chords)
.Verse 1
.Chorus
.Verse 2
.Chorus 2 (End of this chorus below)

      B7     E7
E---------1--------0---|
B-------3--------3-----|
G-----2--------1-------|
D----------------------|
A---2------------------|
e------------0---------|

Bridge

C & Fm...etc B7, E7.

.Chorus
.Verse 3
.Verse 4
.Chorus  x2
.END is B7, E7. A.


Words

1. A Desert road from Vegas to nowhere,
Some place better than where you've been,
A coffee machine that needs some fixing,
In a little cafe' just around the bend.

I am calling you, i know you hear me,
I am calling you.

2. A hot dry wind blows right through me,
The baby's crying and I can't sleep,
But we both know that a change is coming,
Coming closer, sweet release.

And I am calling you, i know you hear me,
I am calling you,
Oooh, yeah. (B7, E7)

.Bridge
.Chorus

3. Desert road from Vegas to nowhere,
Somewhere better than where you've been,
But we both know that a change is coming,
Coming closer around the bend.

4. A hot dry wind blows right through me,
The baby's crying and I can't sleep,
But we both know that a change is coming,
Coming closer, sweet release
And I am calling you, don't you hear me

I am calling you..............
            
Hard to play? Try these video lessons and learn fast. | Correct




comments powered by Disqus
↑ Back to top | Tablatures and chords are parodies/interpretations of the original songs. You may use it for private study, scholarship, research or language learning purposes only