» » »

Diamond Dust Tabs (ver.1)

Artists:  A B C D E F G H I J K L M N O P Q R S T U V W X Y Z # 

Diamond Dust Tabs (ver.1)

Jeff Beck
Rating:
0/5 (0 votes)

Hard to play? Try these video lessons and learn fast.
                Diamond Dust    

Written by Bernie Holland.

Arranged for solo guitar, chords by Guy Nixon-Luke.


Instructions:

continue ostinato arpeggio through all chords...



     Dm11                Dm11                   Dm7M9             
                
E||-------------------0-------------------0--|--0----------------|
B||----------1-------------------1-----------|--2----------------|
G||-------------0-------------------0--------|--2----------------|
D||-------3--------3----------3--------3-----|--3----------------|
A||------------------------------------------|--0----------------|
D||--0-------------------0-------------------|--0----------------|


  Fm11                 Bbm11               Ab/Gb             

--3----------------|---8----------------|--4----------------|
--4----------------|---9----------------|--4----------------|
--3----------------|---8----------------|--5----------------|
--6----------------|--11----------------|--6----------------|
--3----------------|---8----------------|--6----------------|
--3----------------|---8----------------|--4----------------|


  Ebm11               Abm11               Gb/E                B7M/5-            

--1----------------|--6----------------|--2----------------|--6----------------|
--2----------------|--7----------------|--2----------------|--6----------------|
--1----------------|--6----------------|--3----------------|--8----------------|
--4----------------|--9----------------|--4----------------|--8----------------|
--1----------------|--6----------------|--4----------------|--x----------------|
--1----------------|--6----------------|--2----------------|--9----------------|


  GbM9/Bb             GbM9+6              Fm11              

--6----------------|--4----------------|--3----------------|
--6----------------|--6----------------|--4----------------|
--6----------------|--8----------------|--3----------------|
--6----------------|--6----------------|--6----------------|
--9----------------|--4----------------|--3----------------|
--8----------------|--4----------------|--3----------------|


   Cm11                 BbM9+6               G/A                
 
--10----------------|---8----------------|---7----------------||
--11----------------|--10----------------|---8----------------||
--10----------------|--12----------------|---7----------------||
--13----------------|--10----------------|---9----------------||
--10----------------|---8----------------|--10----------------||
--10----------------|---8----------------|---7----------------||


This tablature transcription is provided as-is for non-commercial, educational use ONLY.
            
Hard to play? Try these video lessons and learn fast. | Correct




comments powered by Disqus
↑ Back to top | Tablatures and chords are parodies/interpretations of the original songs. You may use it for private study, scholarship, research or language learning purposes only