» » »

What Should I Do Tabs (ver.1)

Artists:  A B C D E F G H I J K L M N O P Q R S T U V W X Y Z # 

What Should I Do Tabs (ver.1)

J Church
Rating:
0/5 (0 votes)

Hard to play? Try these video lessons and learn fast.
                WHAT SHOULD I DO? - J Church 

* = harmonic 

intro (4x) 
e|---------------------------------------------------------------------------| 
B|---7--7*-------------------------------------------------------------------| 
G|--7--7*-7*-----------------------------------------------------------------| 
D|-7--7--7*------------------------------------------------------------------| 
A|---------------------------------------------------------------------------| 
E|---------------------------------------------------------------------------| 

verse (4x) 
e|---------------------------------------------------------------------------| 
B|-7*-7*-7*---------(add this 2nd repeat)-------7----------------------------| 
G|--7*-7*-7*-----------------------------------7-----------------------------| 
D|---7*-7*-7*----------------------------------------------------------------| 
A|---------------------------------------------------------------------------| 
E|---------------------------------------------------------------------------| 

between verses (4x) 
e|---------------------------------------------------------------------------| 
B|---7--7--7---7*------------------------------------------------------------| 
G|--7--7--7--7*-7*-----------------------------------------------------------| 
D|-7--7--7--7-7*-------------------------------------------------------------| 
A|---------------------------------------------------------------------------| 
E|---------------------------------------------------------------------------| 

other things he does after the verse riff: 
e|---------------------------------------------------------------------------| 
B|-7-------and--------------and----------------------------------------------| 
G|--7--------------7---------------------------------------------------------| 
D|------------------7-------------7------------------------------------------| 
A|---------------------------------7-----------------------------------------| 
E|---------------------------------------------------------------------------| 

there's another verse riff too 
e|---------------------------------------------------------------------------| 
B|-----he'll do this sometimes after-----7------or---7----------------------| 
G|----------------------------------------7----------7-----------------------| 
D|-7---------------------------------------7---------7-----------------------| 
A|-5-------------------------------------------------------------------------| 
E|---------------------------------------------------------------------------| 
            
Hard to play? Try these video lessons and learn fast. | Correct




comments powered by Disqus
↑ Back to top | Tablatures and chords are parodies/interpretations of the original songs. You may use it for private study, scholarship, research or language learning purposes only