>
 >
No Jazz

No Jazz Guitar Tabs

J Church - No Jazz chords, tabs, tablatures, lyrics

Guitar lessons | Add/correct | Request | Top 50 tabs Artists:  A B C D E F G H I J K L M N O P Q R S T U V W X Y Z 0-9

No Jazz Guitar Tabs – J Church

CD, Sheet music, Poster

Do you like No Jazz? Share with your friends now
Tabs

-------------------- 
* = let ring (fade) 
-------------------- 


Intro (guitar only) 
x2 
e|-------------------------------------| 
B|-------------------------------------| 
G|----------55555555----------55555555-| 
D|-55555555-55555555-77777777-55555555-| 
A|-55555555-33333333-77777777-33333333-| 
E|-33333333----------55555555----------| 

Little solo 

e|---------------------------------------------------| 
B|---------------------------------------------------| 
G|---------------------------------------------------| 
D|----5-4------------------------5-4-----------------| 
A|--------5-3-2-------7-5-3----------5-3-2-------7-5-| 
E|-3------------5-7-8---------3------------5-7-8-----| 

After the little solo the bass plays with the drum and the guitar plays this 

e|-------------------------------------| 
B|-------------------------------------| 
G|-------------------------------------| 
D|-5*-----------------5*---------------| 
A|-5*-----------------5*---------------| 
E|-3*-----------------3*---------------| 

Verse 
x2 
e|-------------------------------------| 
B|-------------------------------------| 
G|----------55555555----------55555555-| 
D|-55555555-55555555-77777777-55555555-| 
A|-55555555-33333333-77777777-33333333-| 
E|-33333333----------55555555----------| 

Chorus 

e|-------------------------------------|-------------------------------------| 
B|-------------------------------------|-------------------------------------| 
G|----------77777777-55555555----------|----------77777777-55555555-77777777-| 
D|-22222222-77777777-55555555-55555555-|-22222222-77777777-55555555-77777777-| 
A|-22222222-55555555-33333333-55555555-|-22222222-55555555-33333333-55555555-| 
E|-00000000-------------------33333333-|-00000000----------------------------| 

Verse 
x2 
e|-------------------------------------| 
B|-------------------------------------| 
G|----------55555555----------55555555-| 
D|-55555555-55555555-77777777-55555555-| 
A|-55555555-33333333-77777777-33333333-| 
E|-33333333----------55555555----------| 

Little solo 

e|---------------------------------------------------| 
B|---------------------------------------------------| 
G|---------------------------------------------------| 
D|----5-4------------------------5-4-----------------| 
A|--------5-3-2-------7-5-3----------5-3-2-------7-5-| 
E|-3------------5-7-8---------3------------5-7-8-----| 

After the little solo 

e|-------------------------------------| 
B|-------------------------------------| 
G|-------------------------------------| 
D|-5*-----------------5*---------------| 
A|-5*-----------------5*---------------| 
E|-3*-----------------3*---------------| 

Verse 
x2 
e|-------------------------------------| 
B|-------------------------------------| 
G|----------55555555----------55555555-| 
D|-55555555-55555555-77777777-55555555-| 
A|-55555555-33333333-77777777-33333333-| 
E|-33333333----------55555555----------| 

Chorus 

e|-------------------------------------|-------------------------------------| 
B|-------------------------------------|-------------------------------------| 
G|----------77777777-55555555----------|----------77777777-55555555-77777777-| 
D|-22222222-77777777-55555555-55555555-|-22222222-77777777-55555555-77777777-| 
A|-22222222-55555555-33333333-55555555-|-22222222-55555555-33333333-55555555-| 
E|-00000000-------------------33333333-|-00000000----------------------------| 

Verse 
x2 
e|-------------------------------------| 
B|-------------------------------------| 
G|----------55555555----------55555555-| 
D|-55555555-55555555-77777777-55555555-| 
A|-55555555-33333333-77777777-33333333-| 
E|-33333333----------55555555----------| 

Little solo 

e|---------------------------------------------------| 
B|---------------------------------------------------| 
G|---------------------------------------------------| 
D|----5-4------------------------5-4-----------------| 
A|--------5-3-2-------7-5-3----------5-3-2-------7-5-| 
E|-3------------5-7-8---------3------------5-7-8-----| 

Bridge 
x3 
e|------------------------------------|-------------------------------------| 
B|------------------------------------|-------------------------------------| 
G|-55555555-77777777------------------|-22222222-44444444-55555555-77777777-| 
D|-55555555-77777777-5555555555555555-|-22222222-44444444-55555555-77777777-| 
A|-33333333-55555555-5555555555555555-|-00000000-22222222-33333333-55555555-| 
E|-------------------3333333333333333-|-------------------------------------| 

Big solo (don't have it, sorry) 

just play this 
x2 
e|-------------------------------------| 
B|-------------------------------------| 
G|----------55555555----------55555555-| 
D|-55555555-55555555-77777777-55555555-| 
A|-55555555-33333333-77777777-33333333-| 
E|-33333333----------55555555----------| 

Verse 
x2 
e|-------------------------------------| 
B|-------------------------------------| 
G|----------55555555----------55555555-| 
D|-55555555-55555555-77777777-55555555-| 
A|-55555555-33333333-77777777-33333333-| 
E|-33333333----------55555555----------| 

Ending 

e|----------| 
B|----------| 
G|----------| 
D|-5*-----5-| 
A|-5*-----5-| 
E|-3*-----3-|





Comments


Popular J Church tabs & chords
A Simple Gesture Bass Tabs
Case Number Bass Tabs
Crop Circles 1 Bass Tabs
Facist Radio 1 Bass Tabs
Jennifer Jason Leigh 1 Bass Tabs
Santa Cruz Bass Tabs
Simple Gesture 1 Bass Tabs
Smell It Rot 1 Bass Tabs
Undisputed King Of Nothing Bass Tabs
What Should I Do Tabs


Song lyrics



↑ Back to top | Tablatures and chords are parodies/interpretations of the original songs. You may use it for private study, scholarship, research or language learning purposes only
© 2014 AZChords.com Contact us | Privacy policy | DMCA | Add/correct tabs | Request tabs | Top 50 tabs